  0
SECTION
  2
ENTITIES
  0
LINE
  8
0
 62
     7
 10
71.11158
 20
-33.886837
 30
0.0
 11
72.11158
 21
-34.886837
 31
0.0
  0
LINE
  8
0
 62
     7
 10
75.11158
 20
-33.886837
 30
0.0
 11
74.11158
 21
-34.886837
 31
0.0
  0
LINE
  8
0
 62
     7
 10
74.11158
 20
-16.886837
 30
0.0
 11
75.11158
 21
-17.886837
 31
0.0
  0
LINE
  8
0
 62
     7
 10
71.11158
 20
-17.886837
 30
0.0
 11
72.11158
 21
-16.886837
 31
0.0
  0
LINE
  8
0
 62
     7
 10
65.11158
 20
-16.886837
 30
0.0
 11
66.11158
 21
-17.886837
 31
0.0
  0
LINE
  8
0
 62
     7
 10
62.11158
 20
-17.886837
 30
0.0
 11
63.11158
 21
-16.886837
 31
0.0
  0
LINE
  8
0
 62
     7
 10
65.11158
 20
-34.886837
 30
0.0
 11
66.11158
 21
-33.886837
 31
0.0
  0
LINE
  8
0
 62
     7
 10
61.11158
 20
-30.886837
 30
0.0
 11
62.11158
 21
-29.886837
 31
0.0
  0
LINE
  8
0
 62
     7
 10
56.11158
 20
-16.886837
 30
0.0
 11
57.11158
 21
-17.886837
 31
0.0
  0
LINE
  8
0
 62
     7
 10
47.11158
 20
-34.886837
 30
0.0
 11
48.11158
 21
-33.886837
 31
0.0
  0
LINE
  8
0
 62
     7
 10
42.11158
 20
-33.886837
 30
0.0
 11
43.11158
 21
-34.886837
 31
0.0
  0
LINE
  8
0
 62
     7
 10
31.11158
 20
-34.886837
 30
0.0
 11
32.11158
 21
-33.886837
 31
0.0
  0
LINE
  8
0
 62
     7
 10
26.11158
 20
-33.886837
 30
0.0
 11
27.11158
 21
-34.886837
 31
0.0
  0
LINE
  8
0
 62
     7
 10
12.11158
 20
-34.886837
 30
0.0
 11
13.11158
 21
-33.886837
 31
0.0
  0
LINE
  8
0
 62
     7
 10
8.11158
 20
-33.886837
 30
0.0
 11
9.11158
 21
-34.886837
 31
0.0
  0
LINE
  8
0
 62
     7
 10
12.11158
 20
-12.886837
 30
0.0
 11
13.11158
 21
-13.886837
 31
0.0
  0
LINE
  8
0
 62
     7
 10
8.11158
 20
-13.886837
 30
0.0
 11
9.11158
 21
-12.886837
 31
0.0
  0
ARC
  8
0
 62
     7
 10
45.11158
 20
-15.886837
 30
0.0
 40
3.0
 50
0.0
 51
180.0
  0
ARC
  8
0
 62
     7
 10
29.11158
 20
-15.886837
 30
0.0
 40
3.0
 50
0.0
 51
180.0
  0
LINE
  8
0
 62
     7
 10
23.11158
 20
-34.886837
 30
0.0
 11
15.11158
 21
-26.886837
 31
0.0
  0
LINE
  8
0
 62
     7
 10
20.32925
 20
-21.669167
 30
0.0
 11
15.11158
 21
-26.886837
 31
0.0
  0
LINE
  8
0
 62
     7
 10
27.11158
 20
-34.886837
 30
0.0
 11
31.11158
 21
-34.886837
 31
0.0
  0
LINE
  8
0
 62
     7
 10
17.11158
 20
-34.886837
 30
0.0
 11
23.11158
 21
-34.886837
 31
0.0
  0
LINE
  8
0
 62
     7
 10
13.11158
 20
-30.886837
 30
0.0
 11
13.11158
 21
-33.886837
 31
0.0
  0
LINE
  8
0
 62
     7
 10
13.11158
 20
-30.886837
 30
0.0
 11
17.11158
 21
-34.886837
 31
0.0
  0
LINE
  8
0
 62
     7
 10
19.11158
 20
-16.886837
 30
0.0
 11
13.11158
 21
-22.886837
 31
0.0
  0
ARC
  8
0
 62
     7
 10
29.11158
 20
-15.886837
 30
0.0
 40
3.0
 50
180.0
 51
0.0
  0
ARC
  8
0
 62
     7
 10
45.11158
 20
-15.886837
 30
0.0
 40
3.0
 50
180.0
 51
0.0
  0
LINE
  8
0
 62
     7
 10
43.11158
 20
-34.886837
 30
0.0
 11
47.11158
 21
-34.886837
 31
0.0
  0
ARC
  8
0
 62
     7
 10
29.11158
 20
-16.886837
 30
0.0
 40
10.0
 50
287.457603
 51
323.130102
  0
ARC
  8
0
 62
     7
 10
45.11158
 20
-16.886837
 30
0.0
 40
10.0
 50
287.457603
 51
323.130102
  0
LINE
  8
0
 62
     7
 10
39.11158
 20
-16.886837
 30
0.0
 11
35.11158
 21
-16.886837
 31
0.0
  0
LINE
  8
0
 62
     7
 10
23.11158
 20
-16.886837
 30
0.0
 11
19.11158
 21
-16.886837
 31
0.0
  0
LINE
  8
0
 62
     7
 10
26.11158
 20
-26.426229
 30
0.0
 11
26.11158
 21
-33.886837
 31
0.0
  0
LINE
  8
0
 62
     7
 10
32.11158
 20
-26.426229
 30
0.0
 11
32.11158
 21
-33.886837
 31
0.0
  0
LINE
  8
0
 62
     7
 10
42.11158
 20
-26.426229
 30
0.0
 11
42.11158
 21
-33.886837
 31
0.0
  0
LINE
  8
0
 62
     7
 10
48.11158
 20
-26.426229
 30
0.0
 11
48.11158
 21
-33.886837
 31
0.0
  0
ARC
  8
0
 62
     7
 10
29.11158
 20
-16.886837
 30
0.0
 40
10.0
 50
208.57006
 51
252.542397
  0
ARC
  8
0
 62
     7
 10
29.11158
 20
-16.886837
 30
0.0
 40
6.0
 50
180.0
 51
0.0
  0
ARC
  8
0
 62
     7
 10
45.11158
 20
-16.886837
 30
0.0
 40
6.0
 50
180.0
 51
0.0
  0
ARC
  8
0
 62
     7
 10
45.11158
 20
-16.886837
 30
0.0
 40
10.0
 50
216.869898
 51
252.542397
  0
LINE
  8
0
 62
     7
 10
56.11158
 20
-34.886837
 30
0.0
 11
65.11158
 21
-34.886837
 31
0.0
  0
LINE
  8
0
 62
     7
 10
57.11158
 20
-29.886837
 30
0.0
 11
58.11158
 21
-30.886837
 31
0.0
  0
LINE
  8
0
 62
     7
 10
53.11158
 20
-31.886837
 30
0.0
 11
56.11158
 21
-34.886837
 31
0.0
  0
LINE
  8
0
 62
     7
 10
72.11158
 20
-34.886837
 30
0.0
 11
74.11158
 21
-34.886837
 31
0.0
  0
LINE
  8
0
 62
     7
 10
65.11158
 20
-16.886837
 30
0.0
 11
63.11158
 21
-16.886837
 31
0.0
  0
LINE
  8
0
 62
     7
 10
56.11158
 20
-16.886837
 30
0.0
 11
51.11158
 21
-16.886837
 31
0.0
  0
LINE
  8
0
 62
     7
 10
61.11158
 20
-30.886837
 30
0.0
 11
58.11158
 21
-30.886837
 31
0.0
  0
LINE
  8
0
 62
     7
 10
66.11158
 20
-18.886837
 30
0.0
 11
66.11158
 21
-17.886837
 31
0.0
  0
LINE
  8
0
 62
     7
 10
71.11158
 20
-23.886837
 30
0.0
 11
71.11158
 21
-17.886837
 31
0.0
  0
LINE
  8
0
 62
     7
 10
66.11158
 20
-27.886837
 30
0.0
 11
71.11158
 21
-32.886837
 31
0.0
  0
LINE
  8
0
 62
     7
 10
66.11158
 20
-18.886837
 30
0.0
 11
71.11158
 21
-23.886837
 31
0.0
  0
LINE
  8
0
 62
     7
 10
74.11158
 20
-16.886837
 30
0.0
 11
72.11158
 21
-16.886837
 31
0.0
  0
LINE
  8
0
 62
     7
 10
9.11158
 20
-12.886837
 30
0.0
 11
12.11158
 21
-12.886837
 31
0.0
  0
LINE
  8
0
 62
     7
 10
53.11158
 20
-31.886837
 30
0.0
 11
53.11158
 21
-22.886837
 31
0.0
  0
LINE
  8
0
 62
     7
 10
57.11158
 20
-29.886837
 30
0.0
 11
57.11158
 21
-17.886837
 31
0.0
  0
LINE
  8
0
 62
     7
 10
62.11158
 20
-29.886837
 30
0.0
 11
62.11158
 21
-17.886837
 31
0.0
  0
LINE
  8
0
 62
     7
 10
66.11158
 20
-33.886837
 30
0.0
 11
66.11158
 21
-27.886837
 31
0.0
  0
LINE
  8
0
 62
     7
 10
71.11158
 20
-33.886837
 30
0.0
 11
71.11158
 21
-32.886837
 31
0.0
  0
LINE
  8
0
 62
     7
 10
13.11158
 20
-13.886837
 30
0.0
 11
13.11158
 21
-22.886837
 31
0.0
  0
LINE
  8
0
 62
     7
 10
75.11158
 20
-33.886837
 30
0.0
 11
75.11158
 21
-17.886837
 31
0.0
  0
LINE
  8
0
 62
     7
 10
8.11158
 20
-13.886837
 30
0.0
 11
8.11158
 21
-33.886837
 31
0.0
  0
LINE
  8
0
 62
     7
 10
9.11158
 20
-34.886837
 30
0.0
 11
12.11158
 21
-34.886837
 31
0.0
  0
ARC
  8
0
 62
     7
 10
127.11158
 20
-18.886837
 30
0.0
 40
2.828427
 50
225.0
 51
45.0
  0
ARC
  8
0
 62
     5
 10
127.11158
 20
-18.886837
 30
0.0
 40
2.828427
 50
45.0
 51
225.0
  0
ARC
  8
0
 62
     5
 10
127.11158
 20
-18.720171
 30
0.0
 40
7.917982
 50
220.732107
 51
59.656751
  0
ARC
  8
0
 62
     7
 10
127.31158
 20
-18.886837
 30
0.0
 40
7.964923
 50
61.504361
 51
218.884496
  0
LINE
  8
0
 62
     5
 10
146.11158
 20
-14.886837
 30
0.0
 11
145.11158
 21
-15.886837
 31
0.0
  0
LINE
  8
0
 62
     5
 10
145.11158
 20
-10.886837
 30
0.0
 11
146.11158
 21
-11.886837
 31
0.0
  0
LINE
  8
0
 62
     7
 10
137.11158
 20
-11.886837
 30
0.0
 11
138.11158
 21
-10.886837
 31
0.0
  0
LINE
  8
0
 62
     7
 10
138.11158
 20
-15.886837
 30
0.0
 11
137.11158
 21
-14.886837
 31
0.0
  0
LINE
  8
0
 62
     7
 10
137.11158
 20
-20.886837
 30
0.0
 11
138.11158
 21
-19.886837
 31
0.0
  0
LINE
  8
0
 62
     7
 10
138.11158
 20
-24.886837
 30
0.0
 11
137.11158
 21
-23.886837
 31
0.0
  0
LINE
  8
0
 62
     7
 10
142.11158
 20
-28.886837
 30
0.0
 11
141.11158
 21
-27.886837
 31
0.0
  0
LINE
  8
0
 62
     5
 10
145.11158
 20
-28.886837
 30
0.0
 11
146.11158
 21
-27.886837
 31
0.0
  0
LINE
  8
0
 62
     5
 10
146.11158
 20
-36.886837
 30
0.0
 11
145.11158
 21
-37.886837
 31
0.0
  0
LINE
  8
0
 62
     5
 10
145.11158
 20
-32.886837
 30
0.0
 11
146.11158
 21
-33.886837
 31
0.0
  0
LINE
  8
0
 62
     7
 10
125.11158
 20
-28.886837
 30
0.0
 11
124.11158
 21
-29.886837
 31
0.0
  0
LINE
  8
0
 62
     5
 10
128.11158
 20
-28.886837
 30
0.0
 11
129.11158
 21
-29.886837
 31
0.0
  0
LINE
  8
0
 62
     5
 10
114.11158
 20
-10.886837
 30
0.0
 11
115.11158
 21
-11.886837
 31
0.0
  0
LINE
  8
0
 62
     7
 10
111.11158
 20
-10.886837
 30
0.0
 11
110.11158
 21
-11.886837
 31
0.0
  0
LINE
  8
0
 62
     5
 10
114.11158
 20
-37.886837
 30
0.0
 11
115.11158
 21
-36.886837
 31
0.0
  0
LINE
  8
0
 62
     7
 10
110.11158
 20
-36.886837
 30
0.0
 11
111.11158
 21
-37.886837
 31
0.0
  0
LINE
  8
0
 62
     5
 10
105.11158
 20
-37.886837
 30
0.0
 11
106.11158
 21
-36.886837
 31
0.0
  0
LINE
  8
0
 62
     7
 10
101.11158
 20
-36.886837
 30
0.0
 11
102.11158
 21
-37.886837
 31
0.0
  0
LINE
  8
0
 62
     7
 10
88.11158
 20
-11.886837
 30
0.0
 11
89.11158
 21
-10.886837
 31
0.0
  0
LINE
  8
0
 62
     7
 10
89.11158
 20
-15.886837
 30
0.0
 11
88.11158
 21
-14.886837
 31
0.0
  0
LINE
  8
0
 62
     5
 10
104.11158
 20
-10.886837
 30
0.0
 11
106.11158
 21
-12.886837
 31
0.0
  0
LINE
  8
0
 62
     7
 10
124.11158
 20
-35.886837
 30
0.0
 11
126.11158
 21
-37.886837
 31
0.0
  0
LINE
  8
0
 62
     5
 10
144.11158
 20
-19.886837
 30
0.0
 11
146.11158
 21
-21.886837
 31
0.0
  0
LINE
  8
0
 62
     5
 10
146.11158
 20
-27.886837
 30
0.0
 11
146.11158
 21
-21.886837
 31
0.0
  0
LINE
  8
0
 62
     5
 10
146.11158
 20
-14.886837
 30
0.0
 11
146.11158
 21
-11.886837
 31
0.0
  0
LINE
  8
0
 62
     7
 10
104.11158
 20
-10.886837
 30
0.0
 11
89.11158
 21
-10.886837
 31
0.0
  0
LINE
  8
0
 62
     5
 10
111.11158
 20
-37.886837
 30
0.0
 11
114.11158
 21
-37.886837
 31
0.0
  0
LINE
  8
0
 62
     5
 10
126.11158
 20
-37.886837
 30
0.0
 11
145.11158
 21
-37.886837
 31
0.0
  0
LINE
  8
0
 62
     7
 10
114.11158
 20
-10.886837
 30
0.0
 11
111.11158
 21
-10.886837
 31
0.0
  0
LINE
  8
0
 62
     5
 10
102.11158
 20
-37.886837
 30
0.0
 11
105.11158
 21
-37.886837
 31
0.0
  0
LINE
  8
0
 62
     5
 10
142.11158
 20
-28.886837
 30
0.0
 11
145.11158
 21
-28.886837
 31
0.0
  0
LINE
  8
0
 62
     7
 10
141.11158
 20
-24.886837
 30
0.0
 11
141.11158
 21
-27.886837
 31
0.0
  0
LINE
  8
0
 62
     5
 10
138.11158
 20
-24.886837
 30
0.0
 11
141.11158
 21
-24.886837
 31
0.0
  0
LINE
  8
0
 62
     7
 10
137.11158
 20
-20.886837
 30
0.0
 11
137.11158
 21
-23.886837
 31
0.0
  0
LINE
  8
0
 62
     7
 10
144.11158
 20
-19.886837
 30
0.0
 11
138.11158
 21
-19.886837
 31
0.0
  0
LINE
  8
0
 62
     7
 10
137.11158
 20
-14.886837
 30
0.0
 11
137.11158
 21
-11.886837
 31
0.0
  0
LINE
  8
0
 62
     5
 10
145.11158
 20
-15.886837
 30
0.0
 11
138.11158
 21
-15.886837
 31
0.0
  0
LINE
  8
0
 62
     7
 10
124.11158
 20
-29.886837
 30
0.0
 11
124.11158
 21
-35.886837
 31
0.0
  0
LINE
  8
0
 62
     7
 10
128.11158
 20
-28.886837
 30
0.0
 11
125.11158
 21
-28.886837
 31
0.0
  0
LINE
  8
0
 62
     5
 10
129.11158
 20
-32.886837
 30
0.0
 11
129.11158
 21
-29.886837
 31
0.0
  0
LINE
  8
0
 62
     7
 10
145.11158
 20
-32.886837
 30
0.0
 11
129.11158
 21
-32.886837
 31
0.0
  0
LINE
  8
0
 62
     5
 10
101.11158
 20
-15.886837
 30
0.0
 11
89.11158
 21
-15.886837
 31
0.0
  0
LINE
  8
0
 62
     7
 10
101.11158
 20
-36.886837
 30
0.0
 11
101.11158
 21
-15.886837
 31
0.0
  0
LINE
  8
0
 62
     5
 10
106.11158
 20
-36.886837
 30
0.0
 11
106.11158
 21
-12.886837
 31
0.0
  0
LINE
  8
0
 62
     7
 10
110.11158
 20
-36.886837
 30
0.0
 11
110.11158
 21
-11.886837
 31
0.0
  0
LINE
  8
0
 62
     7
 10
88.11158
 20
-14.886837
 30
0.0
 11
88.11158
 21
-11.886837
 31
0.0
  0
LINE
  8
0
 62
     5
 10
115.11158
 20
-36.886837
 30
0.0
 11
115.11158
 21
-11.886837
 31
0.0
  0
LINE
  8
0
 62
     7
 10
145.11158
 20
-10.886837
 30
0.0
 11
138.11158
 21
-10.886837
 31
0.0
  0
LINE
  8
0
 62
     5
 10
146.11158
 20
-36.886837
 30
0.0
 11
146.11158
 21
-33.886837
 31
0.0
  0
LINE
  8
0
 62
     5
 10
0.11158
 20
-48.886837
 30
0.0
 11
155.11158
 21
-48.886837
 31
0.0
  0
LINE
  8
0
 62
     5
 10
155.11158
 20
0.113163
 30
0.0
 11
155.11158
 21
-48.886837
 31
0.0
  0
LINE
  8
0
 62
     7
 10
0.11158
 20
0.113163
 30
0.0
 11
155.11158
 21
0.113163
 31
0.0
  0
LINE
  8
0
 62
     7
 10
0.11158
 20
-48.886837
 30
0.0
 11
0.11158
 21
0.113163
 31
0.0
  0
ENDSEC
  0
EOF
