  0
SECTION
  2
ENTITIES
  0
LINE
  8
0
 10
-59.27441
 20
512.2303
 30
0.0
 11
-288.2061
 21
332.6633
 31
0.0
  0
ARC
  8
0
 10
-165.8613
 20
250.7482
 30
0.0
 40
146.6855
 50
146.0518
 51
213.7154
  0
ARC
  8
0
 10
-165.8613
 20
250.7482
 30
0.0
 40
146.6855
 50
146.0518
 51
213.7154
  0
LINE
  8
0
 10
-288.2061
 20
332.6633
 30
0.0
 11
-59.27441
 21
512.2303
 31
0.0
  0
ARC
  8
0
 10
-181.2893
 20
430.8117
 30
0.0
 40
146.6855
 50
326.0511
 51
33.71472
  0
LINE
  8
0
 10
-59.60865
 20
348.8943
 30
0.0
 11
-287.8749
 21
169.3287
 31
0.0
  0
LINE
  8
0
 10
-287.8749
 20
169.3287
 30
0.0
 11
-59.60596
 21
-10.23352
 31
0.0
  0
ARC
  8
0
 10
-181.2854
 20
-92.15264
 30
0.0
 40
146.6855
 50
326.2863
 51
33.94993
  0
LINE
  8
0
 10
-59.26926
 20
-173.5694
 30
0.0
 11
-288.2037
 21
5.994111
 31
0.0
  0
ARC
  8
0
 10
-165.8601
 20
87.91113
 30
0.0
 40
146.6855
 50
146.2857
 51
213.9491
  0
ARC
  8
0
 10
-165.8601
 20
87.91113
 30
0.0
 40
146.6855
 50
146.2857
 51
213.9491
  0
LINE
  8
0
 10
-288.2037
 20
5.994111
 30
0.0
 11
-59.26926
 21
-173.5694
 31
0.0
  0
CIRCLE
  8
0
 10
1000
 20
7000
 30
0.0
 40
100
  0
CIRCLE
  8
0
 10
2000
 20
7000
 30
0.0
 40
100
  0
CIRCLE
  8
0
 10
3000
 20
7000
 30
0.0
 40
100
  0
CIRCLE
  8
0
 10
100
 20
100
 30
0.0
 40
128
  0
CIRCLE
  8
0
 10
200
 20
200
 30
0.0
 40
200
  0
CIRCLE
  8
0
 10
300
 20
300
 30
0.0
 40
200
  0
CIRCLE
  8
0
 10
350
 20
350
 30
0.0
 40
200
  0
CIRCLE
  8
0
 10
360
 20
360
 30
0.0
 40
200
  0
CIRCLE
  8
0
 10
370
 20
370
 30
0.0
 40
200
  0
ENDSEC
  0
EOF
