  0
SECTION
  2
ENTITIES
  0
LINE
  8
0
 10
0
 20
762
 30
0.0
 11
195.4618
 21
762
 31
0.0
  0
LINE
  8
0
 10
195.4618
 20
762
 30
0.0
 11
195.4618
 21
517.8261
 31
0.0
  0
LINE
  8
0
 10
195.4618
 20
517.8261
 30
0.0
 11
195.9783
 21
137.8622
 31
0.0
  0
LINE
  8
0
 10
195.9783
 20
137.8622
 30
0.0
 11
195.9783
 21
-56.07825
 31
0.0
  0
LINE
  8
0
 10
195.9783
 20
-56.07825
 30
0.0
 11
195.9783
 21
137.8622
 31
0.0
  0
LINE
  8
0
 10
195.9783
 20
137.8622
 30
0.0
 11
576.9091
 21
517.8261
 31
0.0
  0
LINE
  8
0
 10
576.9091
 20
517.8261
 30
0.0
 11
195.4618
 21
517.8261
 31
0.0
  0
LINE
  8
0
 10
195.4618
 20
517.8261
 30
0.0
 11
195.4618
 21
762
 31
0.0
  0
LINE
  8
0
 10
195.4618
 20
762
 30
0.0
 11
820.5382
 21
762
 31
0.0
  0
LINE
  8
0
 10
820.5382
 20
762
 30
0.0
 11
576.9091
 21
517.8261
 31
0.0
  0
LINE
  8
0
 10
576.9091
 20
517.8261
 30
0.0
 11
820.5382
 21
762
 31
0.0
  0
LINE
  8
0
 10
820.5382
 20
762
 30
0.0
 11
1016
 21
762
 31
0.0
  0
LINE
  8
0
 10
1016
 20
762
 30
0.0
 11
582.594
 21
328.6667
 31
0.0
  0
LINE
  8
0
 10
582.594
 20
328.6667
 30
0.0
 11
195.9783
 21
-56.07825
 31
0.0
  0
LINE
  8
0
 10
195.9783
 20
-56.07825
 30
0.0
 11
0
 21
-254
 31
0.0
  0
LINE
  8
0
 10
0
 20
-254
 30
0.0
 11
195.9783
 21
-56.07825
 31
0.0
  0
LINE
  8
0
 10
195.9783
 20
-56.07825
 30
0.0
 11
582.594
 21
328.6667
 31
0.0
  0
LINE
  8
0
 10
582.594
 20
328.6667
 30
0.0
 11
582.594
 21
96.66669
 31
0.0
  0
LINE
  8
0
 10
582.594
 20
96.66669
 30
0.0
 11
582.594
 21
-254
 31
0.0
  0
LINE
  8
0
 10
582.594
 20
-254
 30
0.0
 11
582.594
 21
96.66669
 31
0.0
  0
LINE
  8
0
 10
582.594
 20
96.66669
 30
0.0
 11
716.7418
 21
231.1131
 31
0.0
  0
LINE
  8
0
 10
716.7418
 20
231.1131
 30
0.0
 11
1016
 21
-106.1391
 31
0.0
  0
LINE
  8
0
 10
1016
 20
-106.1391
 30
0.0
 11
716.7418
 21
231.1131
 31
0.0
  0
LINE
  8
0
 10
716.7418
 20
231.1131
 30
0.0
 11
1016
 21
530
 31
0.0
  0
LINE
  8
0
 10
1016
 20
530
 30
0.0
 11
1016
 21
762
 31
0.0
  0
LINE
  8
0
 10
1016
 20
762
 30
0.0
 11
1016
 21
530
 31
0.0
  0
LINE
  8
0
 10
1016
 20
530
 30
0.0
 11
1016
 21
-106.1391
 31
0.0
  0
LINE
  8
0
 10
1016
 20
-106.1391
 30
0.0
 11
1016
 21
-254
 31
0.0
  0
LINE
  8
0
 10
1016
 20
-254
 30
0.0
 11
832.2036
 21
-437.6304
 31
0.0
  0
LINE
  8
0
 10
832.2036
 20
-437.6304
 30
0.0
 11
1016
 21
-254
 31
0.0
  0
LINE
  8
0
 10
1016
 20
-254
 30
0.0
 11
582.594
 21
-254
 31
0.0
  0
LINE
  8
0
 10
582.594
 20
-254
 30
0.0
 11
458.3236
 21
-254
 31
0.0
  0
LINE
  8
0
 10
458.3236
 20
-254
 30
0.0
 11
0
 21
-254
 31
0.0
  0
LINE
  8
0
 10
0
 20
-254
 30
0.0
 11
458.3236
 21
-254
 31
0.0
  0
LINE
  8
0
 10
458.3236
 20
-254
 30
0.0
 11
457.7491
 21
-599.6957
 31
0.0
  0
LINE
  8
0
 10
457.7491
 20
-599.6957
 30
0.0
 11
457.7491
 21
-812.5609
 31
0.0
  0
LINE
  8
0
 10
457.7491
 20
-812.5609
 30
0.0
 11
832.2036
 21
-437.6304
 31
0.0
  0
LINE
  8
0
 10
832.2036
 20
-437.6304
 30
0.0
 11
832.2036
 21
-619.7
 31
0.0
  0
LINE
  8
0
 10
832.2036
 20
-619.7
 30
0.0
 11
832.2036
 21
-1017.339
 31
0.0
  0
LINE
  8
0
 10
832.2036
 20
-1017.339
 30
0.0
 11
832.2036
 21
-1270
 31
0.0
  0
LINE
  8
0
 10
832.2036
 20
-1270
 30
0.0
 11
832.2036
 21
-1017.339
 31
0.0
  0
LINE
  8
0
 10
832.2036
 20
-1017.339
 30
0.0
 11
434.4836
 21
-1017.339
 31
0.0
  0
LINE
  8
0
 10
434.4836
 20
-1017.339
 30
0.0
 11
183.7964
 21
-1270
 31
0.0
  0
LINE
  8
0
 10
183.7964
 20
-1270
 30
0.0
 11
434.4836
 21
-1017.339
 31
0.0
  0
LINE
  8
0
 10
434.4836
 20
-1017.339
 30
0.0
 11
832.2036
 21
-619.7
 31
0.0
  0
LINE
  8
0
 10
832.2036
 20
-619.7
 30
0.0
 11
832.2036
 21
-437.6304
 31
0.0
  0
LINE
  8
0
 10
832.2036
 20
-437.6304
 30
0.0
 11
457.7491
 21
-812.5609
 31
0.0
  0
LINE
  8
0
 10
457.7491
 20
-812.5609
 30
0.0
 11
0
 21
-1270
 31
0.0
  0
LINE
  8
0
 10
0
 20
-1270
 30
0.0
 11
0
 21
-1054.043
 31
0.0
  0
LINE
  8
0
 10
0
 20
-1054.043
 30
0.0
 11
306.7443
 21
-746.681
 31
0.0
  0
LINE
  8
0
 10
304.4618
 20
-748.913
 30
0.0
 11
457.7491
 21
-599.6957
 31
0.0
  0
LINE
  8
0
 10
457.7491
 20
-599.6957
 30
0.0
 11
304.4618
 21
-748.913
 31
0.0
  0
LINE
  8
0
 10
304.4618
 20
-748.913
 30
0.0
 11
0
 21
-393.8043
 31
0.0
  0
LINE
  8
0
 10
0
 20
-393.8043
 30
0.0
 11
0
 21
-254
 31
0.0
  0
LINE
  8
0
 10
0
 20
-254
 30
0.0
 11
0
 21
-393.8043
 31
0.0
  0
LINE
  8
0
 10
0
 20
-393.8043
 30
0.0
 11
0
 21
-1054.043
 31
0.0
  0
LINE
  8
0
 10
0
 20
-1054.043
 30
0.0
 11
0
 21
-1270
 31
0.0
  0
CIRCLE
  8
0
 10
1000
 20
7000
 30
0.0
 40
100
  0
CIRCLE
  8
0
 10
3000
 20
7000
 30
0.0
 40
100
  0
CIRCLE
  8
0
 10
5000
 20
7000
 30
0.0
 40
100
  0
CIRCLE
  8
0
 10
100
 20
100
 30
0.0
 40
125
  0
CIRCLE
  8
0
 10
200
 20
200
 30
0.0
 40
200
  0
CIRCLE
  8
0
 10
300
 20
300
 30
0.0
 40
200
  0
CIRCLE
  8
0
 10
350
 20
350
 30
0.0
 40
200
  0
CIRCLE
  8
0
 10
360
 20
360
 30
0.0
 40
200
  0
CIRCLE
  8
0
 10
370
 20
370
 30
0.0
 40
200
  0
ENDSEC
  0
EOF
