  0
SECTION
  2
ENTITIES
  0
ARC
  8
0
 10
-277.2227
 20
171.4235
 30
0.0
 40
522.5598
 50
7.713095
 51
17.08728
  0
ARC
  8
0
 10
-350.7206
 20
109.6973
 30
0.0
 40
605.8533
 50
358.5389
 51
12.5707
  0
ARC
  8
0
 10
-350.7215
 20
78.82735
 30
0.0
 40
605.8533
 50
347.4262
 51
1.458297
  0
ARC
  8
0
 10
-350.7215
 20
78.82735
 30
0.0
 40
605.8533
 50
347.4262
 51
1.458297
  0
ARC
  8
0
 10
-350.7206
 20
109.6973
 30
0.0
 40
605.8533
 50
358.5389
 51
12.5707
  0
ARC
  8
0
 10
4.922722
 20
-452.0921
 30
0.0
 40
732.5967
 50
71.23344
 51
91.04559
  0
ARC
  8
0
 10
-23.00472
 20
-452.0695
 30
0.0
 40
732.5967
 50
88.86141
 51
108.6737
  0
ARC
  8
0
 10
260.152
 20
170.9876
 30
0.0
 40
522.5598
 50
162.8198
 51
172.1939
  0
ARC
  8
0
 10
260.152
 20
170.9876
 30
0.0
 40
522.5598
 50
162.8198
 51
172.1939
  0
ARC
  8
0
 10
333.5497
 20
109.1423
 30
0.0
 40
605.8533
 50
167.3363
 51
181.3684
  0
ARC
  8
0
 10
333.5001
 20
78.26816
 30
0.0
 40
605.8533
 50
178.4482
 51
192.4803
  0
ARC
  8
0
 10
259.9048
 20
16.65816
 30
0.0
 40
522.5598
 50
187.6227
 51
196.9968
  0
ARC
  8
0
 10
259.9048
 20
16.65816
 30
0.0
 40
522.5598
 50
187.6227
 51
196.9968
  0
ARC
  8
0
 10
-21.24875
 20
640.619
 30
0.0
 40
732.5967
 50
251.1423
 51
270.9544
  0
ARC
  8
0
 10
.5223299
 20
902.2044
 30
0.0
 40
994.1265
 50
269.4484
 51
278.3612
  0
ARC
  8
0
 10
-214.5705
 20
-202.6154
 30
0.0
 40
379.5451
 50
7.432615
 51
18.63197
  0
ARC
  8
0
 10
-409.48
 20
-289.7896
 30
0.0
 40
587.2941
 50
357.8201
 51
13.41685
  0
ARC
  8
0
 10
-428.2913
 20
-326.5914
 30
0.0
 40
605.8533
 50
347.3362
 51
1.36834
  0
ARC
  8
0
 10
-354.8938
 20
-388.4369
 30
0.0
 40
522.5598
 50
342.8196
 51
352.1938
  0
ARC
  8
0
 10
-354.8938
 20
-388.4369
 30
0.0
 40
522.5598
 50
342.8196
 51
352.1938
  0
ARC
  8
0
 10
-428.2913
 20
-326.5914
 30
0.0
 40
605.8533
 50
347.3362
 51
1.36834
  0
ARC
  8
0
 10
-409.48
 20
-289.7896
 30
0.0
 40
587.2941
 50
357.8201
 51
13.41685
  0
ARC
  8
0
 10
-214.5705
 20
-202.6154
 30
0.0
 40
379.5451
 50
7.432615
 51
18.63197
  0
ARC
  8
0
 10
-163.1885
 20
1134.995
 30
0.0
 40
1254.807
 50
284.2218
 51
288.7714
  0
ARC
  8
0
 10
-277.2268
 20
17.09714
 30
0.0
 40
522.5598
 50
342.9096
 51
352.2838
  0
ARC
  8
0
 10
283.2436
 20
-468.6819
 30
0.0
 40
337.7583
 50
100.4025
 51
111.0756
  0
ARC
  8
0
 10
283.2436
 20
-468.6819
 30
0.0
 40
337.7583
 50
100.4025
 51
111.0756
  0
ARC
  8
0
 10
351.8835
 20
-665.3801
 30
0.0
 40
544.5579
 50
87.50246
 51
103.7705
  0
ARC
  8
0
 10
398.0605
 20
-665.4346
 30
0.0
 40
544.5579
 50
76.09447
 51
92.3623
  0
ARC
  8
0
 10
467.1643
 20
-468.8989
 30
0.0
 40
337.7583
 50
68.78937
 51
79.46249
  0
ARC
  8
0
 10
965.5562
 20
-203.1693
 30
0.0
 40
379.5451
 50
161.3143
 51
172.5136
  0
ARC
  8
0
 10
965.5562
 20
-203.1693
 30
0.0
 40
379.5451
 50
161.3143
 51
172.5136
  0
ARC
  8
0
 10
1160.384
 20
-290.5262
 30
0.0
 40
587.2941
 50
166.5294
 51
182.1264
  0
ARC
  8
0
 10
1179.161
 20
-327.3456
 30
0.0
 40
605.8533
 50
178.5779
 51
192.6103
  0
ARC
  8
0
 10
1105.704
 20
-389.1223
 30
0.0
 40
522.5598
 50
187.7527
 51
197.1268
  0
ARC
  8
0
 10
1105.704
 20
-389.1223
 30
0.0
 40
522.5598
 50
187.7527
 51
197.1268
  0
ARC
  8
0
 10
467.3792
 20
-155.7464
 30
0.0
 40
337.7583
 50
280.4589
 51
291.132
  0
ARC
  8
0
 10
398.5449
 20
40.88386
 30
0.0
 40
544.5579
 50
267.5592
 51
283.8269
  0
ARC
  8
0
 10
352.3678
 20
40.89274
 30
0.0
 40
544.5579
 50
256.1511
 51
272.4189
  0
ARC
  8
0
 10
283.4583
 20
-155.711
 30
0.0
 40
337.7583
 50
248.8459
 51
259.5191
  0
ARC
  8
0
 10
283.4583
 20
-155.711
 30
0.0
 40
337.7583
 50
248.8459
 51
259.5191
  0
CIRCLE
  8
0
 10
1000
 20
7000
 30
0.0
 40
100
  0
CIRCLE
  8
0
 10
2500
 20
7000
 30
0.0
 40
100
  0
CIRCLE
  8
0
 10
4000
 20
7000
 30
0.0
 40
100
  0
CIRCLE
  8
0
 10
100
 20
100
 30
0.0
 40
125
  0
CIRCLE
  8
0
 10
200
 20
200
 30
0.0
 40
200
  0
CIRCLE
  8
0
 10
300
 20
300
 30
0.0
 40
200
  0
CIRCLE
  8
0
 10
350
 20
350
 30
0.0
 40
200
  0
CIRCLE
  8
0
 10
360
 20
360
 30
0.0
 40
200
  0
CIRCLE
  8
0
 10
370
 20
370
 30
0.0
 40
200
  0
ENDSEC
  0
EOF
