  0
SECTION
  2
ENTITIES
  0
LINE
  8
0
 10
0
 20
1016
 30
0.0
 11
0
 21
239.44
 31
0.0
  0
LINE
  8
0
 10
0
 20
239.44
 30
0.0
 11
119.72
 21
239.44
 31
0.0
  0
LINE
  8
0
 10
119.72
 20
239.44
 30
0.0
 11
119.72
 21
1016
 31
0.0
  0
LINE
  8
0
 10
119.72
 20
1016
 30
0.0
 11
239.44
 21
1016
 31
0.0
  0
LINE
  8
0
 10
239.44
 20
1016
 30
0.0
 11
239.44
 21
239.44
 31
0.0
  0
LINE
  8
0
 10
239.44
 20
239.44
 30
0.0
 11
1016
 21
239.44
 31
0.0
  0
LINE
  8
0
 10
1016
 20
239.44
 30
0.0
 11
1016
 21
119.72
 31
0.0
  0
LINE
  8
0
 10
1016
 20
119.72
 30
0.0
 11
239.44
 21
119.72
 31
0.0
  0
LINE
  8
0
 10
239.44
 20
119.72
 30
0.0
 11
119.72
 21
119.72
 31
0.0
  0
LINE
  8
0
 10
119.72
 20
119.72
 30
0.0
 11
0
 21
119.72
 31
0.0
  0
LINE
  8
0
 10
0
 20
119.72
 30
0.0
 11
0
 21
0
 31
0.0
  0
LINE
  8
0
 10
0
 20
0
 30
0.0
 11
119.72
 21
0
 31
0.0
  0
LINE
  8
0
 10
119.72
 20
0
 30
0.0
 11
119.72
 21
119.72
 31
0.0
  0
LINE
  8
0
 10
119.72
 20
119.72
 30
0.0
 11
119.72
 21
239.44
 31
0.0
  0
LINE
  8
0
 10
119.72
 20
239.44
 30
0.0
 11
239.44
 21
239.44
 31
0.0
  0
LINE
  8
0
 10
239.44
 20
239.44
 30
0.0
 11
239.44
 21
119.72
 31
0.0
  0
LINE
  8
0
 10
239.44
 20
119.72
 30
0.0
 11
239.44
 21
0
 31
0.0
  0
LINE
  8
0
 10
239.44
 20
0
 30
0.0
 11
1016
 21
0
 31
0.0
  0
LINE
  8
0
 10
1016
 20
0
 30
0.0
 11
1016
 21
-776.56
 31
0.0
  0
LINE
  8
0
 10
1016
 20
-776.56
 30
0.0
 11
239.44
 21
-776.56
 31
0.0
  0
LINE
  8
0
 10
239.44
 20
-776.56
 30
0.0
 11
239.44
 21
0
 31
0.0
  0
LINE
  8
0
 10
239.44
 20
0
 30
0.0
 11
119.72
 21
0
 31
0.0
  0
LINE
  8
0
 10
119.72
 20
0
 30
0.0
 11
119.72
 21
-776.56
 31
0.0
  0
LINE
  8
0
 10
119.72
 20
-776.56
 30
0.0
 11
0
 21
-776.56
 31
0.0
  0
LINE
  8
0
 10
0
 20
-776.56
 30
0.0
 11
0
 21
-896.28
 31
0.0
  0
LINE
  8
0
 10
0
 20
-896.28
 30
0.0
 11
119.72
 21
-896.28
 31
0.0
  0
LINE
  8
0
 10
119.72
 20
-896.28
 30
0.0
 11
239.44
 21
-896.28
 31
0.0
  0
LINE
  8
0
 10
239.44
 20
-896.28
 30
0.0
 11
1016
 21
-896.28
 31
0.0
  0
LINE
  8
0
 10
1016
 20
-896.28
 30
0.0
 11
1016
 21
-1016
 31
0.0
  0
LINE
  8
0
 10
1016
 20
-1016
 30
0.0
 11
239.44
 21
-1016
 31
0.0
  0
LINE
  8
0
 10
239.44
 20
-1016
 30
0.0
 11
239.44
 21
-896.28
 31
0.0
  0
LINE
  8
0
 10
239.44
 20
-896.28
 30
0.0
 11
239.44
 21
-776.56
 31
0.0
  0
LINE
  8
0
 10
239.44
 20
-776.56
 30
0.0
 11
119.72
 21
-776.56
 31
0.0
  0
LINE
  8
0
 10
119.72
 20
-776.56
 30
0.0
 11
119.72
 21
-896.28
 31
0.0
  0
LINE
  8
0
 10
119.72
 20
-896.28
 30
0.0
 11
119.72
 21
-1016
 31
0.0
  0
LINE
  8
0
 10
119.72
 20
-1016
 30
0.0
 11
0
 21
-1016
 31
0.0
  0
CIRCLE
  8
0
 10
1000
 20
7000
 30
0.0
 40
100
  0
CIRCLE
  8
0
 10
3000
 20
7000
 30
0.0
 40
100
  0
CIRCLE
  8
0
 10
5000
 20
7000
 30
0.0
 40
100
  0
CIRCLE
  8
0
 10
100
 20
100
 30
0.0
 40
127
  0
CIRCLE
  8
0
 10
200
 20
200
 30
0.0
 40
200
  0
CIRCLE
  8
0
 10
300
 20
300
 30
0.0
 40
200
  0
CIRCLE
  8
0
 10
350
 20
350
 30
0.0
 40
200
  0
CIRCLE
  8
0
 10
360
 20
360
 30
0.0
 40
200
  0
CIRCLE
  8
0
 10
370
 20
370
 30
0.0
 40
200
  0
ENDSEC
  0
EOF
