  0
SECTION
  2
ENTITIES
  0
ARC
  8
0
 10
131.5692
 20
125.7763
 30
0.0
 40
139.0645
 50
77.81987
 51
126.9215
  0
ARC
  8
0
 10
175.29
 20
96.20346
 30
0.0
 40
189.7509
 50
132.1189
 51
207.9679
  0
ARC
  8
0
 10
656.9547
 20
403.0039
 30
0.0
 40
760.3817
 50
211.3666
 51
238.8504
  0
ARC
  8
0
 10
656.9547
 20
403.0039
 30
0.0
 40
760.3817
 50
211.3666
 51
238.8504
  0
ARC
  8
0
 10
175.29
 20
96.20346
 30
0.0
 40
189.7509
 50
132.1189
 51
207.9679
  0
ARC
  8
0
 10
131.5692
 20
125.7763
 30
0.0
 40
139.0645
 50
77.81987
 51
126.9215
  0
ARC
  8
0
 10
131.4804
 20
127.603
 30
0.0
 40
137.2984
 50
15.70728
 51
77.62283
  0
ARC
  8
0
 10
395.8187
 20
127.5872
 30
0.0
 40
137.2984
 50
102.3703
 51
164.2859
  0
ARC
  8
0
 10
395.7298
 20
125.7605
 30
0.0
 40
139.0645
 50
53.07177
 51
102.1732
  0
ARC
  8
0
 10
352.0055
 20
96.19315
 30
0.0
 40
189.7509
 50
332.0257
 51
47.87436
  0
ARC
  8
0
 10
-129.6234
 20
403.0497
 30
0.0
 40
760.3817
 50
301.1432
 51
328.627
  0
ARC
  8
0
 10
-129.6234
 20
403.0497
 30
0.0
 40
760.3817
 50
301.1432
 51
328.627
  0
ARC
  8
0
 10
687.1743
 20
-79.80827
 30
0.0
 40
189.7509
 50
152.0322
 51
227.8812
  0
ARC
  8
0
 10
643.4533
 20
-109.3811
 30
0.0
 40
139.0645
 50
233.0786
 51
282.1801
  0
ARC
  8
0
 10
643.4533
 20
-109.3811
 30
0.0
 40
139.0645
 50
233.0786
 51
282.1801
  0
ARC
  8
0
 10
687.1743
 20
-79.80827
 30
0.0
 40
189.7509
 50
152.0322
 51
227.8812
  0
ARC
  8
0
 10
1168.825
 20
-386.6321
 30
0.0
 40
760.3817
 50
121.1476
 51
148.6313
  0
ARC
  8
0
 10
382.2468
 20
-386.6472
 30
0.0
 40
760.3817
 50
31.37112
 51
58.85479
  0
ARC
  8
0
 10
863.8897
 20
-79.7979
 30
0.0
 40
189.7509
 50
312.1256
 51
27.97457
  0
ARC
  8
0
 10
907.6139
 20
-109.3653
 30
0.0
 40
139.0645
 50
257.8269
 51
306.9282
  0
ARC
  8
0
 10
907.7029
 20
-111.1921
 30
0.0
 40
137.2984
 50
195.7143
 51
257.6298
  0
ARC
  8
0
 10
643.3646
 20
-111.2078
 30
0.0
 40
137.2984
 50
282.3771
 51
344.2927
  0
ARC
  8
0
 10
702.2065
 20
-379.4261
 30
0.0
 40
137.2984
 50
102.3703
 51
164.2859
  0
ARC
  8
0
 10
702.2065
 20
-379.4261
 30
0.0
 40
137.2984
 50
102.3703
 51
164.2859
  0
ARC
  8
0
 10
702.1175
 20
-381.2528
 30
0.0
 40
139.0645
 50
53.07177
 51
102.1732
  0
ARC
  8
0
 10
658.3932
 20
-410.8202
 30
0.0
 40
189.7509
 50
332.0257
 51
47.87436
  0
ARC
  8
0
 10
176.7643
 20
-103.9637
 30
0.0
 40
760.3817
 50
301.1432
 51
328.627
  0
ARC
  8
0
 10
963.3423
 20
-104.0095
 30
0.0
 40
760.3817
 50
211.3666
 51
238.8504
  0
ARC
  8
0
 10
481.6777
 20
-410.8099
 30
0.0
 40
189.7509
 50
132.1189
 51
207.9679
  0
ARC
  8
0
 10
437.957
 20
-381.237
 30
0.0
 40
139.0645
 50
77.81987
 51
126.9215
  0
ARC
  8
0
 10
437.8682
 20
-379.4103
 30
0.0
 40
137.2984
 50
15.70728
 51
77.62283
  0
ARC
  8
0
 10
437.8682
 20
-379.4103
 30
0.0
 40
137.2984
 50
15.70728
 51
77.62283
  0
ARC
  8
0
 10
437.957
 20
-381.237
 30
0.0
 40
139.0645
 50
77.81987
 51
126.9215
  0
ARC
  8
0
 10
481.6777
 20
-410.8099
 30
0.0
 40
189.7509
 50
132.1189
 51
207.9679
  0
ARC
  8
0
 10
146.5043
 20
-588.7846
 30
0.0
 40
189.7509
 50
312.1256
 51
27.97457
  0
ARC
  8
0
 10
190.2286
 20
-618.3521
 30
0.0
 40
139.0645
 50
257.8269
 51
306.9282
  0
ARC
  8
0
 10
190.2286
 20
-618.3521
 30
0.0
 40
139.0645
 50
257.8269
 51
306.9282
  0
ARC
  8
0
 10
146.5043
 20
-588.7846
 30
0.0
 40
189.7509
 50
312.1256
 51
27.97457
  0
ARC
  8
0
 10
-335.1385
 20
-895.634
 30
0.0
 40
760.3817
 50
31.37112
 51
58.85479
  0
ARC
  8
0
 10
451.4391
 20
-895.6188
 30
0.0
 40
760.3817
 50
121.1476
 51
148.6313
  0
ARC
  8
0
 10
-30.21114
 20
-588.795
 30
0.0
 40
189.7509
 50
152.0322
 51
227.8812
  0
ARC
  8
0
 10
-73.93198
 20
-618.3679
 30
0.0
 40
139.0645
 50
233.0786
 51
282.1801
  0
ARC
  8
0
 10
-74.02073
 20
-620.1946
 30
0.0
 40
137.2984
 50
282.3771
 51
344.2927
  0
ARC
  8
0
 10
190.3176
 20
-620.1788
 30
0.0
 40
137.2984
 50
195.7143
 51
257.6298
  0
CIRCLE
  8
0
 10
1000
 20
7000
 30
0.0
 40
100
  0
CIRCLE
  8
0
 10
3000
 20
7000
 30
0.0
 40
100
  0
CIRCLE
  8
0
 10
5000
 20
7000
 30
0.0
 40
100
  0
CIRCLE
  8
0
 10
100
 20
100
 30
0.0
 40
125
  0
CIRCLE
  8
0
 10
200
 20
200
 30
0.0
 40
200
  0
CIRCLE
  8
0
 10
300
 20
300
 30
0.0
 40
200
  0
CIRCLE
  8
0
 10
350
 20
350
 30
0.0
 40
200
  0
CIRCLE
  8
0
 10
360
 20
360
 30
0.0
 40
200
  0
CIRCLE
  8
0
 10
370
 20
370
 30
0.0
 40
200
  0
ENDSEC
  0
EOF
