  0
SECTION
  2
ENTITIES
  0
LINE
  8
0
 10
-385.7137
 20
571.5
 30
0.0
 11
-192.8569
 21
8.583069E-06
 31
0.0
  0
LINE
  8
0
 10
-192.8569
 20
8.583069E-06
 30
0.0
 11
-388
 21
577.6
 31
0.0
  0
LINE
  8
0
 10
-388
 20
577.6
 30
0.0
 11
1.141812
 21
577.6
 31
0.0
  0
LINE
  8
0
 10
1.141812
 20
577.6
 30
0.0
 11
-192.8569
 21
8.583069E-06
 31
0.0
  0
LINE
  8
0
 10
-192.8569
 20
8.583069E-06
 30
0.0
 11
192.8569
 21
8.583069E-06
 31
0.0
  0
LINE
  8
0
 10
192.8569
 20
8.583069E-06
 30
0.0
 11
-5.792839E-06
 21
571.5
 31
0.0
  0
LINE
  8
0
 10
-5.792839E-06
 20
571.5
 30
0.0
 11
385.7137
 21
571.5
 31
0.0
  0
LINE
  8
0
 10
385.7137
 20
571.5
 30
0.0
 11
192.8569
 21
8.583069E-06
 31
0.0
  0
LINE
  8
0
 10
192.8569
 20
8.583069E-06
 30
0.0
 11
578.5706
 21
8.583069E-06
 31
0.0
  0
LINE
  8
0
 10
578.5706
 20
8.583069E-06
 30
0.0
 11
385.7137
 21
-571.5
 31
0.0
  0
LINE
  8
0
 10
385.7137
 20
-571.5
 30
0.0
 11
192.8569
 21
8.583069E-06
 31
0.0
  0
LINE
  8
0
 10
192.8569
 20
8.583069E-06
 30
0.0
 11
-5.792839E-06
 21
-571.5
 31
0.0
  0
LINE
  8
0
 10
-5.792839E-06
 20
-571.5
 30
0.0
 11
-192.8569
 21
8.583069E-06
 31
0.0
  0
LINE
  8
0
 10
-192.8569
 20
8.583069E-06
 30
0.0
 11
-5.792839E-06
 21
-571.5
 31
0.0
  0
LINE
  8
0
 10
-5.792839E-06
 20
-571.5
 30
0.0
 11
-385.7137
 21
-571.5
 31
0.0
  0
CIRCLE
  8
0
 10
1000
 20
7000
 30
0.0
 40
100
  0
CIRCLE
  8
0
 10
2500
 20
7000
 30
0.0
 40
100
  0
CIRCLE
  8
0
 10
4000
 20
7000
 30
0.0
 40
100
  0
CIRCLE
  8
0
 10
100
 20
100
 30
0.0
 40
125
  0
CIRCLE
  8
0
 10
200
 20
200
 30
0.0
 40
200
  0
CIRCLE
  8
0
 10
300
 20
300
 30
0.0
 40
200
  0
CIRCLE
  8
0
 10
350
 20
350
 30
0.0
 40
200
  0
CIRCLE
  8
0
 10
360
 20
360
 30
0.0
 40
200
  0
CIRCLE
  8
0
 10
370
 20
370
 30
0.0
 40
200
  0
ENDSEC
  0
EOF
