  0
SECTION
  2
ENTITIES
  0
LINE
  8
0
 10
381
 20
762
 30
0.0
 11
444.7673
 21
698.2957
 31
0.0
  0
LINE
  8
0
 10
444.7673
 20
698.2957
 30
0.0
 11
762
 21
381
 31
0.0
  0
LINE
  8
0
 10
762
 20
381
 30
0.0
 11
381
 21
1.144409E-05
 31
0.0
  0
LINE
  8
0
 10
381
 20
1.144409E-05
 30
0.0
 11
265.3455
 21
114.8261
 31
0.0
  0
LINE
  8
0
 10
265.3455
 20
114.8261
 30
0.0
 11
224.7564
 21
155.9
 31
0.0
  0
LINE
  8
0
 10
224.7564
 20
155.9
 30
0.0
 11
265.3455
 21
114.8261
 31
0.0
  0
LINE
  8
0
 10
265.3455
 20
114.8261
 30
0.0
 11
416.2545
 21
137.2087
 31
0.0
  0
ARC
  8
0
 10
446.4019
 20
146.1819
 30
0.0
 40
31.45438
 50
118.3276
 51
196.5753
  0
LINE
  8
0
 10
431.4763
 20
173.8696
 30
0.0
 11
515.7818
 21
248.3739
 31
0.0
  0
LINE
  8
0
 10
515.7818
 20
248.3739
 30
0.0
 11
429.1346
 21
332.3391
 31
0.0
  0
LINE
  8
0
 10
429.1346
 20
332.3391
 30
0.0
 11
422.1091
 21
353.2261
 31
0.0
  0
LINE
  8
0
 10
422.1091
 20
353.2261
 30
0.0
 11
224.7564
 21
155.9
 31
0.0
  0
LINE
  8
0
 10
224.7564
 20
155.9
 30
0.0
 11
208.3891
 21
172.4043
 31
0.0
  0
LINE
  8
0
 10
208.3891
 20
172.4043
 30
0.0
 11
63.76727
 21
317.2957
 31
0.0
  0
LINE
  8
0
 10
63.76727
 20
317.2957
 30
0.0
 11
208.3891
 21
172.4043
 31
0.0
  0
LINE
  8
0
 10
208.3891
 20
172.4043
 30
0.0
 11
424.2182
 21
387.5913
 31
0.0
  0
LINE
  8
0
 10
424.2182
 20
387.5913
 30
0.0
 11
424.2182
 21
416.9304
 31
0.0
  0
LINE
  8
0
 10
424.2182
 20
416.9304
 30
0.0
 11
280.4146
 21
416.4957
 31
0.0
  0
ARC
  8
0
 10
282.2832
 20
429.4134
 30
0.0
 40
13.05219
 50
103.9916
 51
261.7686
  0
LINE
  8
0
 10
279.1273
 20
442.0782
 30
0.0
 11
502.9815
 21
603.4437
 31
0.0
  0
ARC
  8
0
 10
614.0053
 20
736.8734
 30
0.0
 40
173.5792
 50
192.8411
 51
230.2371
  0
LINE
  8
0
 10
444.7673
 20
698.2957
 30
0.0
 11
63.76727
 21
317.2957
 31
0.0
  0
LINE
  8
0
 10
63.76727
 20
317.2957
 30
0.0
 11
5.722046E-06
 21
381
 31
0.0
  0
LINE
  8
0
 10
5.722046E-06
 20
381
 30
0.0
 11
381
 21
762
 31
0.0
  0
LINE
  8
0
 10
381
 20
762
 30
0.0
 11
5.722046E-06
 21
381
 31
0.0
  0
LINE
  8
0
 10
5.722046E-06
 20
381
 30
0.0
 11
-63.76726
 21
317.2957
 31
0.0
  0
LINE
  8
0
 10
-63.76726
 20
317.2957
 30
0.0
 11
-381
 21
1.144409E-05
 31
0.0
  0
LINE
  8
0
 10
-381
 20
1.144409E-05
 30
0.0
 11
5.722046E-06
 21
-381
 31
0.0
  0
LINE
  8
0
 10
5.722046E-06
 20
-381
 30
0.0
 11
65.56001
 21
-314.2826
 31
0.0
  0
LINE
  8
0
 10
65.56001
 20
-314.2826
 30
0.0
 11
-39.52726
 21
-284.6435
 31
0.0
  0
ARC
  8
0
 10
-195.4192
 20
-306.0145
 30
0.0
 40
157.35
 50
7.805943
 51
69.93711
  0
LINE
  8
0
 10
-141.44
 20
-158.213
 30
0.0
 11
-77.95999
 21
-94.11302
 31
0.0
  0
LINE
  8
0
 10
-77.95999
 20
-94.11302
 30
0.0
 11
-77.95999
 21
-43.94782
 31
0.0
  0
LINE
  8
0
 10
-77.95999
 20
-43.94782
 30
0.0
 11
-25.86908
 21
-45.06086
 31
0.0
  0
LINE
  8
0
 10
-25.86908
 20
-45.06086
 30
0.0
 11
154.2254
 21
-227.0391
 31
0.0
  0
LINE
  8
0
 10
154.2254
 20
-227.0391
 30
0.0
 11
65.56001
 21
-314.2826
 31
0.0
  0
LINE
  8
0
 10
65.56001
 20
-314.2826
 30
0.0
 11
154.2254
 21
-227.0391
 31
0.0
  0
LINE
  8
0
 10
154.2254
 20
-227.0391
 30
0.0
 11
167.0109
 21
-213.8478
 31
0.0
  0
LINE
  8
0
 10
167.0109
 20
-213.8478
 30
0.0
 11
361.8836
 21
-19.12173
 31
0.0
  0
LINE
  8
0
 10
361.8836
 20
-19.12173
 30
0.0
 11
167.0109
 21
-213.8478
 31
0.0
  0
LINE
  8
0
 10
167.0109
 20
-213.8478
 30
0.0
 11
-.3999943
 21
-46.16521
 31
0.0
  0
ARC
  8
0
 10
24.33923
 20
76.02032
 30
0.0
 40
124.6649
 50
258.554
 51
291.6473
  0
ARC
  8
0
 10
-20.66684
 20
-68.27869
 30
0.0
 40
95.33034
 50
17.34877
 51
49.44958
  0
ARC
  8
0
 10
-552.6826
 20
-466.9533
 30
0.0
 40
758.1362
 50
38.41886
 51
53.49858
  0
ARC
  8
0
 10
-257.7957
 20
267.8748
 30
0.0
 40
200.2235
 50
321.2202
 51
14.28993
  0
LINE
  8
0
 10
-63.76726
 20
317.2957
 30
0.0
 11
24.52001
 21
318.2609
 31
0.0
  0
LINE
  8
0
 10
24.52001
 20
318.2609
 30
0.0
 11
361.8836
 21
-19.12173
 31
0.0
  0
LINE
  8
0
 10
361.8836
 20
-19.12173
 30
0.0
 11
381
 21
1.144409E-05
 31
0.0
  0
CIRCLE
  8
0
 10
1000
 20
7000
 30
0.0
 40
100
  0
CIRCLE
  8
0
 10
2500
 20
7000
 30
0.0
 40
100
  0
CIRCLE
  8
0
 10
4000
 20
7000
 30
0.0
 40
100
  0
CIRCLE
  8
0
 10
100
 20
100
 30
0.0
 40
125
  0
CIRCLE
  8
0
 10
200
 20
200
 30
0.0
 40
200
  0
CIRCLE
  8
0
 10
300
 20
300
 30
0.0
 40
200
  0
CIRCLE
  8
0
 10
350
 20
350
 30
0.0
 40
200
  0
CIRCLE
  8
0
 10
360
 20
360
 30
0.0
 40
200
  0
CIRCLE
  8
0
 10
370
 20
370
 30
0.0
 40
200
  0
ENDSEC
  0
EOF
