  0
SECTION
  2
ENTITIES
  0
LINE
  8
0
 10
-315.8879
 20
1332.97
 30
0.0
 11
.9484696
 21
888.4698
 31
0.0
  0
LINE
  8
0
 10
.9484696
 20
888.4698
 30
0.0
 11
317.7849
 21
1332.97
 31
0.0
  0
LINE
  8
0
 10
317.7849
 20
1332.97
 30
0.0
 11
634.6213
 21
888.4698
 31
0.0
  0
LINE
  8
0
 10
634.6213
 20
888.4698
 30
0.0
 11
951.4577
 21
1332.97
 31
0.0
  0
LINE
  8
0
 10
951.4577
 20
1332.97
 30
0.0
 11
634.6213
 21
888.4698
 31
0.0
  0
LINE
  8
0
 10
634.6213
 20
888.4698
 30
0.0
 11
951.4577
 21
443.9698
 31
0.0
  0
LINE
  8
0
 10
951.4577
 20
443.9698
 30
0.0
 11
634.6213
 21
888.4698
 31
0.0
  0
LINE
  8
0
 10
634.6213
 20
888.4698
 30
0.0
 11
317.7849
 21
443.9698
 31
0.0
  0
LINE
  8
0
 10
317.7849
 20
443.9698
 30
0.0
 11
.9484696
 21
888.4698
 31
0.0
  0
LINE
  8
0
 10
.9484696
 20
888.4698
 30
0.0
 11
-315.8879
 21
443.9698
 31
0.0
  0
CIRCLE
  8
0
 10
1000
 20
7000
 30
0.0
 40
100
  0
CIRCLE
  8
0
 10
3500
 20
7000
 30
0.0
 40
100
  0
CIRCLE
  8
0
 10
6000
 20
7000
 30
0.0
 40
100
  0
CIRCLE
  8
0
 10
100
 20
100
 30
0.0
 40
125
  0
CIRCLE
  8
0
 10
200
 20
200
 30
0.0
 40
200
  0
CIRCLE
  8
0
 10
300
 20
300
 30
0.0
 40
200
  0
CIRCLE
  8
0
 10
350
 20
350
 30
0.0
 40
200
  0
CIRCLE
  8
0
 10
360
 20
360
 30
0.0
 40
200
  0
CIRCLE
  8
0
 10
370
 20
370
 30
0.0
 40
200
  0
ENDSEC
  0
EOF
