  0
SECTION
  2
ENTITIES
  0
ARC
  8
0
 10
-383.5275
 20
766.2388
 30
0.0
 40
383.5505
 50
306.0151
 51
359.3668
  0
LINE
  8
0
 10
-158.0017
 20
455.9984
 30
0.0
 11
-371.2921
 21
306.0009
 31
0.0
  0
ARC
  8
0
 10
-145.7654
 20
-4.238823
 30
0.0
 40
383.5505
 50
126.0151
 51
179.3669
  0
ARC
  8
0
 10
-145.7653
 20
4.23635
 30
0.0
 40
383.5505
 50
180.6329
 51
233.9846
  0
LINE
  8
0
 10
-371.2939
 20
-306.002
 30
0.0
 11
-158.0044
 21
-456.0008
 31
0.0
  0
ARC
  8
0
 10
-383.532
 20
-766.2399
 30
0.0
 40
383.5505
 50
.6331309
 51
53.98486
  0
CIRCLE
  8
0
 10
1000
 20
7000
 30
0.0
 40
100
  0
CIRCLE
  8
0
 10
2500
 20
8000
 30
0.0
 40
100
  0
CIRCLE
  8
0
 10
4000
 20
7000
 30
0.0
 40
100
  0
CIRCLE
  8
0
 10
100
 20
100
 30
0.0
 40
125
  0
CIRCLE
  8
0
 10
200
 20
200
 30
0.0
 40
200
  0
CIRCLE
  8
0
 10
300
 20
300
 30
0.0
 40
200
  0
CIRCLE
  8
0
 10
350
 20
350
 30
0.0
 40
200
  0
CIRCLE
  8
0
 10
360
 20
360
 30
0.0
 40
200
  0
CIRCLE
  8
0
 10
370
 20
370
 30
0.0
 40
200
  0
ENDSEC
  0
EOF
