  0
SECTION
  2
ENTITIES
  0
LINE
  8
0
 10
0
 20
508
 30
0.0
 11
443.9818
 21
1.525879E-05
 31
0.0
  0
LINE
  8
0
 10
443.9818
 20
1.525879E-05
 30
0.0
 11
887.9636
 21
515.1392
 31
0.0
  0
LINE
  8
0
 10
887.9636
 20
515.1392
 30
0.0
 11
1331.945
 21
1.525879E-05
 31
0.0
  0
LINE
  8
0
 10
1331.945
 20
1.525879E-05
 30
0.0
 11
1775.927
 21
508
 31
0.0
  0
LINE
  8
0
 10
1775.927
 20
508
 30
0.0
 11
1327.578
 21
1.869581
 31
0.0
  0
LINE
  8
0
 10
1327.578
 20
1.869581
 30
0.0
 11
1775.927
 21
-508
 31
0.0
  0
LINE
  8
0
 10
1775.927
 20
-508
 30
0.0
 11
1331.945
 21
1.525879E-05
 31
0.0
  0
LINE
  8
0
 10
1331.945
 20
1.525879E-05
 30
0.0
 11
887.9636
 21
-508
 31
0.0
  0
LINE
  8
0
 10
887.9636
 20
-508
 30
0.0
 11
443.9818
 21
1.525879E-05
 31
0.0
  0
LINE
  8
0
 10
443.9818
 20
1.525879E-05
 30
0.0
 11
0
 21
-508
 31
0.0
  0
CIRCLE
  8
0
 10
1000
 20
7000
 30
0.0
 40
100
  0
CIRCLE
  8
0
 10
4500
 20
7000
 30
0.0
 40
100
  0
CIRCLE
  8
0
 10
8000
 20
7000
 30
0.0
 40
100
  0
CIRCLE
  8
0
 10
100
 20
100
 30
0.0
 40
128
  0
CIRCLE
  8
0
 10
200
 20
200
 30
0.0
 40
200
  0
CIRCLE
  8
0
 10
300
 20
300
 30
0.0
 40
200
  0
CIRCLE
  8
0
 10
350
 20
350
 30
0.0
 40
200
  0
CIRCLE
  8
0
 10
360
 20
360
 30
0.0
 40
200
  0
CIRCLE
  8
0
 10
370
 20
370
 30
0.0
 40
200
  0
ENDSEC
  0
EOF
