  0
SECTION
  2
ENTITIES
  0
LINE
  8
0
 10
146.2141
 20
146.2141
 30
0.0
 11
89.01579
 21
88.57188
 31
0.0
  0
LINE
  8
0
 10
89.01579
 20
88.57188
 30
0.0
 11
-235.2298
 21
-234.7859
 31
0.0
  0
LINE
  8
0
 10
-235.2298
 20
-234.7859
 30
0.0
 11
-178.0316
 21
-292.4281
 31
0.0
  0
LINE
  8
0
 10
-178.0316
 20
-292.4281
 30
0.0
 11
203.4123
 21
93.9404
 31
0.0
  0
LINE
  8
0
 10
203.4123
 20
93.9404
 30
0.0
 11
527.658
 21
-234.7859
 31
0.0
  0
LINE
  8
0
 10
527.658
 20
-234.7859
 30
0.0
 11
470.4597
 21
-292.4281
 31
0.0
  0
LINE
  8
0
 10
470.4597
 20
-292.4281
 30
0.0
 11
146.2141
 21
30.9297
 31
0.0
  0
LINE
  8
0
 10
146.2141
 20
30.9297
 30
0.0
 11
89.01579
 21
88.57188
 31
0.0
  0
LINE
  8
0
 10
89.01579
 20
88.57188
 30
0.0
 11
146.2141
 21
30.9297
 31
0.0
  0
LINE
  8
0
 10
146.2141
 20
30.9297
 30
0.0
 11
470.4597
 21
-292.4281
 31
0.0
  0
LINE
  8
0
 10
470.4597
 20
-292.4281
 30
0.0
 11
146.2141
 21
-615.7859
 31
0.0
  0
LINE
  8
0
 10
146.2141
 20
-615.7859
 30
0.0
 11
470.916
 21
-287.2573
 31
0.0
  0
LINE
  8
0
 10
470.916
 20
-287.2573
 30
0.0
 11
527.658
 21
-350.0703
 31
0.0
  0
LINE
  8
0
 10
527.658
 20
-350.0703
 30
0.0
 11
203.4124
 21
-673.4281
 31
0.0
  0
LINE
  8
0
 10
203.4124
 20
-673.4281
 30
0.0
 11
146.2141
 21
-615.7859
 31
0.0
  0
LINE
  8
0
 10
146.2141
 20
-615.7859
 30
0.0
 11
-178.0316
 21
-292.4281
 31
0.0
  0
LINE
  8
0
 10
-178.0316
 20
-292.4281
 30
0.0
 11
-235.2298
 21
-350.0703
 31
0.0
  0
LINE
  8
0
 10
-235.2299
 20
-350.0703
 30
0.0
 11
89.01579
 21
-673.4281
 31
0.0
  0
LINE
  8
0
 10
89.01579
 20
-673.4281
 30
0.0
 11
146.2141
 21
-615.7859
 31
0.0
  0
CIRCLE
  8
0
 10
1000
 20
7000
 30
0.0
 40
100
  0
CIRCLE
  8
0
 10
2500
 20
7000
 30
0.0
 40
100
  0
CIRCLE
  8
0
 10
4000
 20
7000
 30
0.0
 40
100
  0
CIRCLE
  8
0
 10
100
 20
100
 30
0.0
 40
125
  0
CIRCLE
  8
0
 10
200
 20
200
 30
0.0
 40
200
  0
CIRCLE
  8
0
 10
300
 20
300
 30
0.0
 40
200
  0
CIRCLE
  8
0
 10
350
 20
350
 30
0.0
 40
200
  0
CIRCLE
  8
0
 10
360
 20
360
 30
0.0
 40
200
  0
CIRCLE
  8
0
 10
370
 20
370
 30
0.0
 40
200
  0
ENDSEC
  0
EOF
