  0
SECTION
  2
ENTITIES
  0
LINE
  8
0
 10
144.4393
 20
144.4393
 30
0.0
 11
74.68864
 21
74.68217
 31
0.0
  0
LINE
  8
0
 10
74.68864
 20
74.68217
 30
0.0
 11
-363.5672
 21
-363.5607
 31
0.0
  0
LINE
  8
0
 10
-363.5672
 20
-363.5607
 30
0.0
 11
-293.8165
 21
-433.3178
 31
0.0
  0
LINE
  8
0
 10
-293.8165
 20
-433.3178
 30
0.0
 11
209.8
 21
82.2
 31
0.0
  0
LINE
  8
0
 10
209.8
 20
82.2
 30
0.0
 11
652.4457
 21
-363.5607
 31
0.0
  0
LINE
  8
0
 10
652.4457
 20
-363.5607
 30
0.0
 11
582.6951
 21
-433.3178
 31
0.0
  0
LINE
  8
0
 10
582.6951
 20
-433.3178
 30
0.0
 11
144.4393
 21
4.925083
 31
0.0
  0
LINE
  8
0
 10
144.4393
 20
4.925083
 30
0.0
 11
74.68864
 21
74.68217
 31
0.0
  0
LINE
  8
0
 10
74.68864
 20
74.68217
 30
0.0
 11
144.4393
 21
4.925083
 31
0.0
  0
LINE
  8
0
 10
144.4393
 20
4.925083
 30
0.0
 11
582.6951
 21
-433.3178
 31
0.0
  0
LINE
  8
0
 10
582.6951
 20
-433.3178
 30
0.0
 11
144.4393
 21
-871.5607
 31
0.0
  0
LINE
  8
0
 10
144.4393
 20
-871.5607
 30
0.0
 11
582.6951
 21
-422.6418
 31
0.0
  0
LINE
  8
0
 10
582.6951
 20
-422.6418
 30
0.0
 11
652.4457
 21
-492.399
 31
0.0
  0
LINE
  8
0
 10
652.4457
 20
-492.399
 30
0.0
 11
214.1899
 21
-941.3176
 31
0.0
  0
LINE
  8
0
 10
214.1899
 20
-941.3176
 30
0.0
 11
144.4393
 21
-871.5607
 31
0.0
  0
LINE
  8
0
 10
144.4393
 20
-871.5607
 30
0.0
 11
-293.8165
 21
-433.3178
 31
0.0
  0
LINE
  8
0
 10
-293.8165
 20
-433.3178
 30
0.0
 11
-363.5672
 21
-503.0749
 31
0.0
  0
LINE
  8
0
 10
-363.5672
 20
-503.0749
 30
0.0
 11
74.68864
 21
-941.3176
 31
0.0
  0
LINE
  8
0
 10
74.68864
 20
-941.3176
 30
0.0
 11
144.4393
 21
-871.5607
 31
0.0
  0
CIRCLE
  8
0
 10
1000
 20
7000
 30
0.0
 40
100
  0
CIRCLE
  8
0
 10
3000
 20
7000
 30
0.0
 40
100
  0
CIRCLE
  8
0
 10
5000
 20
7000
 30
0.0
 40
100
  0
CIRCLE
  8
0
 10
100
 20
100
 30
0.0
 40
128
  0
CIRCLE
  8
0
 10
200
 20
200
 30
0.0
 40
200
  0
CIRCLE
  8
0
 10
300
 20
300
 30
0.0
 40
200
  0
CIRCLE
  8
0
 10
350
 20
350
 30
0.0
 40
200
  0
CIRCLE
  8
0
 10
360
 20
360
 30
0.0
 40
200
  0
CIRCLE
  8
0
 10
370
 20
370
 30
0.0
 40
200
  0
ENDSEC
  0
EOF
