  0
SECTION
  2
ENTITIES
  0
ARC
  8
0
 10
1762.536
 20
-122.0459
 30
0.0
 40
306.0014
 50
174.4175
 51
213.1703
  0
ARC
  8
0
 10
1747.491
 20
-495.9123
 30
0.0
 40
317.405
 50
2.222292
 51
139.427
  0
ARC
  8
0
 10
1578.051
 20
-443.766
 30
0.0
 40
488.2364
 50
323.5517
 51
355.3196
  0
ARC
  8
0
 10
1578.154
 20
-494.7428
 30
0.0
 40
459.6942
 50
299.7122
 51
328.6619
  0
ARC
  8
0
 10
1578.154
 20
-494.7428
 30
0.0
 40
459.6942
 50
299.7122
 51
328.6619
  0
LINE
  8
0
 10
1970.785
 20
-733.8234
 30
0.0
 11
2064.634
 21
-796.1005
 31
0.0
  0
ARC
  8
0
 10
1247.746
 20
659.1958
 30
0.0
 40
1668.89
 50
299.3065
 51
312.8222
  0
ARC
  8
0
 10
2049.404
 20
-23.09033
 30
0.0
 40
635.8037
 50
301.556
 51
345.9053
  0
ARC
  8
0
 10
2352.082
 20
-134.4349
 30
0.0
 40
316.9808
 50
352.1145
 51
155.0551
  0
ARC
  8
0
 10
1785.042
 20
-130.963
 30
0.0
 40
308.4536
 50
24.96974
 51
78.93703
  0
ARC
  8
0
 10
1788.511
 20
-161.2632
 30
0.0
 40
337.6507
 50
80.50161
 51
168.2107
  0
ARC
  8
0
 10
1762.536
 20
-122.0459
 30
0.0
 40
306.0014
 50
174.4175
 51
213.1703
  0
ARC
  8
0
 10
1615.397
 20
-421.4511
 30
0.0
 40
171.1735
 50
129.5514
 51
158.5462
  0
ARC
  8
0
 10
1157.996
 20
-513.4598
 30
0.0
 40
335.8004
 50
27.41545
 51
92.28564
  0
ARC
  8
0
 10
527.9409
 20
-23.09281
 30
0.0
 40
635.8037
 50
301.556
 51
345.9053
  0
ARC
  8
0
 10
2080.134
 20
56.45355
 30
0.0
 40
1368.626
 50
206.9996
 51
242.8727
  0
CIRCLE
  8
0
 10
1000
 20
7000
 30
0.0
 40
100
  0
CIRCLE
  8
0
 10
4000
 20
7000
 30
0.0
 40
100
  0
CIRCLE
  8
0
 10
7000
 20
7000
 30
0.0
 40
100
  0
CIRCLE
  8
0
 10
100
 20
100
 30
0.0
 40
128
  0
CIRCLE
  8
0
 10
200
 20
200
 30
0.0
 40
188
  0
CIRCLE
  8
0
 10
300
 20
300
 30
0.0
 40
200
  0
CIRCLE
  8
0
 10
350
 20
350
 30
0.0
 40
200
  0
CIRCLE
  8
0
 10
360
 20
360
 30
0.0
 40
200
  0
CIRCLE
  8
0
 10
370
 20
370
 30
0.0
 40
200
  0
ENDSEC
  0
EOF
