  0
SECTION
  2
ENTITIES
  0
LINE
  8
0
 10
-35.30909
 20
975.9998
 30
0.0
 11
-35.30909
 21
248.8522
 31
0.0
  0
ARC
  8
0
 10
-97.02123
 20
241.8142
 30
0.0
 40
62.11217
 50
296.7554
 51
6.506227
  0
LINE
  8
0
 10
-69.05962
 20
186.3519
 30
0.0
 11
-506.4447
 21
-230.7404
 31
0.0
  0
ARC
  8
0
 10
-477.2156
 20
-285.5453
 30
0.0
 40
62.11217
 50
118.0724
 51
187.8234
  0
LINE
  8
0
 10
-538.7497
 20
-293.9999
 30
0.0
 11
-538.7497
 21
-1021.148
 31
0.0
  0
ARC
  8
0
 10
-477.2156
 20
-1029.602
 30
0.0
 40
62.11217
 50
172.1767
 51
241.9278
  0
LINE
  8
0
 10
-506.4447
 20
-1084.407
 30
0.0
 11
-71.55975
 21
-1501.5
 31
0.0
  0
ARC
  8
0
 10
-99.52132
 20
-1556.962
 30
0.0
 40
62.11217
 50
353.4938
 51
63.24491
  0
CIRCLE
  8
0
 10
1000
 20
6000
 30
0.0
 40
100
  0
CIRCLE
  8
0
 10
2500
 20
8000
 30
0.0
 40
100
  0
CIRCLE
  8
0
 10
4000
 20
6000
 30
0.0
 40
100
  0
CIRCLE
  8
0
 10
5500
 20
8000
 30
0.0
 40
100
  0
CIRCLE
  8
0
 10
7000
 20
6000
 30
0.0
 40
100
  0
CIRCLE
  8
0
 10
100
 20
100
 30
0.0
 40
125
  0
CIRCLE
  8
0
 10
200
 20
200
 30
0.0
 40
200
  0
CIRCLE
  8
0
 10
300
 20
300
 30
0.0
 40
200
  0
CIRCLE
  8
0
 10
350
 20
350
 30
0.0
 40
200
  0
CIRCLE
  8
0
 10
360
 20
360
 30
0.0
 40
200
  0
CIRCLE
  8
0
 10
370
 20
370
 30
0.0
 40
200
  0
ENDSEC
  0
EOF
