  0
SECTION
  2
ENTITIES
  0
ARC
  8
0
 10
-126.9646
 20
323.9454
 30
0.0
 40
321.4354
 50
325.7121
 51
355.6779
  0
LINE
  8
0
 10
138.6102
 20
142.8634
 30
0.0
 11
-71.93119
 21
-142.8636
 31
0.0
  0
ARC
  8
0
 10
193.6425
 20
-323.9473
 30
0.0
 40
321.4354
 50
145.7116
 51
175.6774
  0
ARC
  8
0
 10
193.6425
 20
-323.9473
 30
0.0
 40
321.4354
 50
145.7116
 51
175.6774
  0
LINE
  8
0
 10
-71.93119
 20
-142.8636
 30
0.0
 11
138.6102
 21
142.8634
 31
0.0
  0
ARC
  8
0
 10
-126.9646
 20
323.9454
 30
0.0
 40
321.4354
 50
325.7121
 51
355.6779
  0
LINE
  8
0
 10
193.5565
 20
299.7194
 30
0.0
 11
253.7575
 21
299.7194
 31
0.0
  0
ARC
  8
0
 10
-66.76366
 20
323.9454
 30
0.0
 40
321.4354
 50
325.7121
 51
355.6779
  0
LINE
  8
0
 10
198.8112
 20
142.8634
 30
0.0
 11
-11.73021
 21
-142.8636
 31
0.0
  0
ARC
  8
0
 10
253.8435
 20
-323.9473
 30
0.0
 40
321.4354
 50
145.7116
 51
175.6774
  0
ARC
  8
0
 10
253.8438
 20
-275.4946
 30
0.0
 40
321.4354
 50
184.3222
 51
214.2879
  0
LINE
  8
0
 10
-11.73188
 20
-456.5754
 30
0.0
 11
198.8065
 21
-742.3046
 31
0.0
  0
ARC
  8
0
 10
-66.77031
 20
-923.3839
 30
0.0
 40
321.4354
 50
4.321771
 51
34.2875
  0
ARC
  8
0
 10
574.2719
 20
-923.3933
 30
0.0
 40
321.4354
 50
145.711
 51
175.6767
  0
LINE
  8
0
 10
308.7004
 20
-742.3063
 30
0.0
 11
519.2473
 21
-456.5833
 31
0.0
  0
ARC
  8
0
 10
253.677
 20
-275.4946
 30
0.0
 40
321.4354
 50
325.7104
 51
355.6761
  0
ARC
  8
0
 10
253.6768
 20
-323.9473
 30
0.0
 40
321.4354
 50
4.323237
 51
34.28897
  0
LINE
  8
0
 10
519.2489
 20
-142.8614
 30
0.0
 11
308.7051
 21
142.8638
 31
0.0
  0
ARC
  8
0
 10
574.2785
 20
323.9481
 30
0.0
 40
321.4354
 50
184.3228
 51
214.2885
  0
LINE
  8
0
 10
253.7575
 20
299.7202
 30
0.0
 11
313.9585
 21
299.7207
 31
0.0
  0
ARC
  8
0
 10
634.4795
 20
323.9485
 30
0.0
 40
321.4354
 50
184.3228
 51
214.2885
  0
LINE
  8
0
 10
368.9061
 20
142.8643
 30
0.0
 11
579.4499
 21
-142.8609
 31
0.0
  0
ARC
  8
0
 10
313.8777
 20
-323.9468
 30
0.0
 40
321.4354
 50
4.323237
 51
34.28897
  0
ARC
  8
0
 10
313.8781
 20
-275.4957
 30
0.0
 40
321.4354
 50
325.7104
 51
355.6761
  0
LINE
  8
0
 10
579.4483
 20
-456.5845
 30
0.0
 11
368.9014
 21
-742.3074
 31
0.0
  0
ARC
  8
0
 10
634.4729
 20
-923.3944
 30
0.0
 40
321.4354
 50
145.711
 51
175.6767
  0
LINE
  8
0
 10
313.9522
 20
-899.1624
 30
0.0
 11
253.7511
 21
-899.1613
 31
0.0
  0
LINE
  8
0
 10
253.7511
 20
-899.1613
 30
0.0
 11
193.5501
 21
-899.1606
 31
0.0
  0
ARC
  8
0
 10
-126.9713
 20
-923.3832
 30
0.0
 40
321.4354
 50
4.321771
 51
34.28751
  0
LINE
  8
0
 10
138.6055
 20
-742.304
 30
0.0
 11
-71.93287
 21
-456.5748
 31
0.0
  0
ARC
  8
0
 10
193.6428
 20
-275.4939
 30
0.0
 40
321.4354
 50
184.3222
 51
214.2879
  0
ARC
  8
0
 10
193.6428
 20
-275.4939
 30
0.0
 40
321.4354
 50
184.3222
 51
214.2879
  0
LINE
  8
0
 10
-71.93287
 20
-456.5748
 30
0.0
 11
138.6055
 21
-742.304
 31
0.0
  0
ARC
  8
0
 10
-126.9713
 20
-923.3832
 30
0.0
 40
321.4354
 50
4.321771
 51
34.28751
  0
CIRCLE
  8
0
 10
1000
 20
7000
 30
0.0
 40
100
  0
CIRCLE
  8
0
 10
2500
 20
7000
 30
0.0
 40
100
  0
CIRCLE
  8
0
 10
4000
 20
7000
 30
0.0
 40
100
  0
CIRCLE
  8
0
 10
100
 20
100
 30
0.0
 40
128
  0
CIRCLE
  8
0
 10
200
 20
200
 30
0.0
 40
200
  0
CIRCLE
  8
0
 10
300
 20
300
 30
0.0
 40
200
  0
CIRCLE
  8
0
 10
350
 20
350
 30
0.0
 40
200
  0
CIRCLE
  8
0
 10
360
 20
360
 30
0.0
 40
200
  0
CIRCLE
  8
0
 10
370
 20
370
 30
0.0
 40
200
  0
ENDSEC
  0
EOF
