  0
SECTION
  2
ENTITIES
  0
ARC
  8
0
 10
-342.8979
 20
-253.9991
 30
0.0
 40
612.8959
 50
304.0189
 51
55.98077
  0
ARC
  8
0
 10
380.9966
 20
-451.5074
 30
0.0
 40
491.4904
 50
219.1782
 51
320.8217
  0
ARC
  8
0
 10
1104.889
 20
-254.0021
 30
0.0
 40
612.8959
 50
124.0186
 51
235.9808
  0
ARC
  8
0
 10
1104.889
 20
-254.0021
 30
0.0
 40
612.8959
 50
124.0186
 51
235.9808
  0
ARC
  8
0
 10
1142.986
 20
-1072.495
 30
0.0
 40
491.4904
 50
39.17821
 51
140.8218
  0
ARC
  8
0
 10
1866.874
 20
-1270.006
 30
0.0
 40
612.8959
 50
124.0186
 51
235.9808
  0
ARC
  8
0
 10
1142.972
 20
-1467.513
 30
0.0
 40
491.4904
 50
219.1782
 51
320.8217
  0
ARC
  8
0
 10
419.0933
 20
-1270.001
 30
0.0
 40
612.8959
 50
304.0189
 51
55.98077
  0
ARC
  8
0
 10
419.0933
 20
-1270.001
 30
0.0
 40
612.8959
 50
304.0189
 51
55.98077
  0
ARC
  8
0
 10
380.9804
 20
-2088.493
 30
0.0
 40
491.4904
 50
39.17821
 51
140.8218
  0
CIRCLE
  8
0
 10
1000
 20
7000
 30
0.0
 40
100
  0
CIRCLE
  8
0
 10
4000
 20
7000
 30
0.0
 40
100
  0
CIRCLE
  8
0
 10
7000
 20
7000
 30
0.0
 40
100
  0
CIRCLE
  8
0
 10
100
 20
100
 30
0.0
 40
125
  0
CIRCLE
  8
0
 10
200
 20
200
 30
0.0
 40
200
  0
CIRCLE
  8
0
 10
300
 20
300
 30
0.0
 40
200
  0
CIRCLE
  8
0
 10
350
 20
350
 30
0.0
 40
200
  0
CIRCLE
  8
0
 10
360
 20
360
 30
0.0
 40
200
  0
CIRCLE
  8
0
 10
370
 20
370
 30
0.0
 40
200
  0
ENDSEC
  0
EOF
