  0
SECTION
  2
ENTITIES
  0
ARC
  8
0
 10
-241.4629
 20
-253.9954
 30
0.0
 40
562.4631
 50
295.4219
 51
64.57703
  0
ARC
  8
0
 10
444.4861
 20
-310.1823
 30
0.0
 40
633.8088
 50
225.4679
 51
314.5319
  0
ARC
  8
0
 10
1130.442
 20
-254.0047
 30
0.0
 40
562.4631
 50
115.4216
 51
244.577
  0
ARC
  8
0
 10
1130.442
 20
-254.0047
 30
0.0
 40
562.4631
 50
115.4216
 51
244.577
  0
ARC
  8
0
 10
1333.472
 20
-1213.82
 30
0.0
 40
633.8088
 50
45.46797
 51
134.532
  0
ARC
  8
0
 10
2019.419
 20
-1270.006
 30
0.0
 40
562.4631
 50
115.4216
 51
244.577
  0
ARC
  8
0
 10
1333.461
 20
-1326.183
 30
0.0
 40
633.8088
 50
225.4679
 51
314.5319
  0
ARC
  8
0
 10
647.5135
 20
-1269.999
 30
0.0
 40
562.4631
 50
295.4219
 51
64.57703
  0
ARC
  8
0
 10
647.5135
 20
-1269.999
 30
0.0
 40
562.4631
 50
295.4219
 51
64.57703
  0
ARC
  8
0
 10
444.4706
 20
-2229.816
 30
0.0
 40
633.8088
 50
45.46797
 51
134.532
  0
CIRCLE
  8
0
 10
1000
 20
7000
 30
0.0
 40
100
  0
CIRCLE
  8
0
 10
4500
 20
7000
 30
0.0
 40
100
  0
CIRCLE
  8
0
 10
8000
 20
7000
 30
0.0
 40
100
  0
CIRCLE
  8
0
 10
100
 20
100
 30
0.0
 40
127
  0
CIRCLE
  8
0
 10
200
 20
200
 30
0.0
 40
200
  0
CIRCLE
  8
0
 10
300
 20
300
 30
0.0
 40
200
  0
CIRCLE
  8
0
 10
350
 20
350
 30
0.0
 40
200
  0
CIRCLE
  8
0
 10
360
 20
360
 30
0.0
 40
200
  0
CIRCLE
  8
0
 10
370
 20
370
 30
0.0
 40
200
  0
ENDSEC
  0
EOF
