  0
SECTION
  2
ENTITIES
  0
LINE
  8
0
 10
63.61021
 20
1016.179
 30
0.0
 11
63.6073
 21
635.1857
 31
0.0
  0
LINE
  8
0
 10
63.59552
 20
635.1749
 30
0.0
 11
63.59552
 21
335.1739
 31
0.0
  0
ARC
  8
0
 10
-51.88858
 20
-37.8601
 30
0.0
 40
390.4973
 50
15.07377
 51
72.79865
  0
ARC
  8
0
 10
-51.89579
 20
165.2273
 30
0.0
 40
390.4973
 50
287.2044
 51
344.9292
  0
ARC
  8
0
 10
-313.4556
 20
-309.3503
 30
0.0
 40
390.4973
 50
15.07349
 51
72.79836
  0
ARC
  8
0
 10
-313.4718
 20
436.7052
 30
0.0
 40
390.4973
 50
287.2044
 51
344.9293
  0
LINE
  8
0
 10
63.59552
 20
335.1739
 30
0.0
 11
63.59552
 21
635.1749
 31
0.0
  0
ARC
  8
0
 10
-521.4783
 20
-891.6813
 30
0.0
 40
1635.115
 50
52.05553
 51
69.03379
  0
ARC
  8
0
 10
246.2193
 20
87.39233
 30
0.0
 40
390.9698
 50
356.5218
 51
52.55103
  0
ARC
  8
0
 10
246.2186
 20
39.95966
 30
0.0
 40
390.9698
 50
307.4474
 51
3.476932
  0
ARC
  8
0
 10
-521.4521
 20
1019.054
 30
0.0
 40
1635.115
 50
290.9646
 51
307.9429
  0
CIRCLE
  8
0
 10
1000
 20
7000
 30
0.0
 40
100
  0
CIRCLE
  8
0
 10
2500
 20
8000
 30
0.0
 40
100
  0
CIRCLE
  8
0
 10
4000
 20
7000
 30
0.0
 40
100
  0
CIRCLE
  8
0
 10
100
 20
100
 30
0.0
 40
126
  0
CIRCLE
  8
0
 10
200
 20
200
 30
0.0
 40
197
  0
CIRCLE
  8
0
 10
300
 20
300
 30
0.0
 40
200
  0
CIRCLE
  8
0
 10
350
 20
350
 30
0.0
 40
200
  0
CIRCLE
  8
0
 10
360
 20
360
 30
0.0
 40
200
  0
CIRCLE
  8
0
 10
370
 20
370
 30
0.0
 40
200
  0
ENDSEC
  0
EOF
