  0
SECTION
  2
ENTITIES
  0
ARC
  8
0
 10
6.685428
 20
389.2426
 30
0.0
 40
121.0646
 50
113.8848
 51
184.8637
  0
ARC
  8
0
 10
-125.3309
 20
258.7315
 30
0.0
 40
120.7844
 50
84.59012
 51
253.6039
  0
ARC
  8
0
 10
-120.9279
 20
24.77331
 30
0.0
 40
124.2013
 50
108.0565
 51
284.9993
  0
ARC
  8
0
 10
17.59716
 20
-121.4394
 30
0.0
 40
109.5705
 50
166.1425
 51
258.3155
  0
ARC
  8
0
 10
17.59716
 20
-121.4394
 30
0.0
 40
109.5705
 50
166.1425
 51
258.3155
  0
ARC
  8
0
 10
-120.9279
 20
24.77331
 30
0.0
 40
124.2013
 50
108.0565
 51
284.9993
  0
ARC
  8
0
 10
-125.3309
 20
258.7315
 30
0.0
 40
120.7844
 50
84.59012
 51
253.6039
  0
ARC
  8
0
 10
6.685428
 20
389.2426
 30
0.0
 40
121.0646
 50
113.8848
 51
184.8637
  0
ARC
  8
0
 10
5.20721
 20
383.4287
 30
0.0
 40
125.8366
 50
22.80399
 51
112.1973
  0
ARC
  8
0
 10
234.8055
 20
388.0125
 30
0.0
 40
121.8892
 50
355.7487
 51
158.7447
  0
ARC
  8
0
 10
367.746
 20
258.7303
 30
0.0
 40
120.7844
 50
286.396
 51
95.40969
  0
ARC
  8
0
 10
363.343
 20
24.77311
 30
0.0
 40
124.2013
 50
255.0009
 51
71.94344
  0
ARC
  8
0
 10
226.5761
 20
-122.0927
 30
0.0
 40
108.0247
 50
192.7318
 51
14.41722
  0
LINE
  8
0
 10
121.2075
 20
-145.8999
 30
0.0
 11
121.2075
 21
19.96048
 31
0.0
  0
ARC
  8
0
 10
116.7559
 20
147.3107
 30
0.0
 40
127.428
 50
272.0019
 51
357.9974
  0
ARC
  8
0
 10
116.7559
 20
138.4057
 30
0.0
 40
127.428
 50
2.002234
 51
87.99773
  0
ARC
  8
0
 10
125.6602
 20
138.4057
 30
0.0
 40
127.428
 50
92.00208
 51
177.9976
  0
ARC
  8
0
 10
125.6602
 20
147.3106
 30
0.0
 40
127.428
 50
182.0022
 51
267.9977
  0
LINE
  8
0
 10
121.2075
 20
19.96048
 30
0.0
 11
121.2075
 21
-145.8999
 31
0.0
  0
ARC
  8
0
 10
19.49988
 20
-128.3867
 30
0.0
 40
103.2043
 50
256.4998
 51
350.2298
  0
ARC
  8
0
 10
-20.2122
 20
-352.202
 30
0.0
 40
124.4467
 50
82.79
 51
182.681
  0
ARC
  8
0
 10
-155.9104
 20
-478.2693
 30
0.0
 40
120.7844
 50
84.59012
 51
253.6039
  0
ARC
  8
0
 10
-151.5073
 20
-712.2277
 30
0.0
 40
124.2013
 50
108.0565
 51
284.9993
  0
ARC
  8
0
 10
-11.40957
 20
-864.8107
 30
0.0
 40
112.7727
 50
163.1902
 51
254.0847
  0
ARC
  8
0
 10
-11.40957
 20
-864.8107
 30
0.0
 40
112.7727
 50
163.1902
 51
254.0847
  0
ARC
  8
0
 10
-151.5073
 20
-712.2277
 30
0.0
 40
124.2013
 50
108.0565
 51
284.9993
  0
ARC
  8
0
 10
-155.9104
 20
-478.2693
 30
0.0
 40
120.7844
 50
84.59012
 51
253.6039
  0
ARC
  8
0
 10
-20.2122
 20
-352.202
 30
0.0
 40
124.4467
 50
82.79
 51
182.681
  0
ARC
  8
0
 10
-32.5789
 20
-361.4099
 30
0.0
 40
135.5902
 50
24.67706
 51
78.08865
  0
ARC
  8
0
 10
204.226
 20
-348.9885
 30
0.0
 40
121.8892
 50
355.7487
 51
158.7447
  0
ARC
  8
0
 10
337.1665
 20
-478.2708
 30
0.0
 40
120.7844
 50
286.396
 51
95.40969
  0
ARC
  8
0
 10
332.7635
 20
-712.2279
 30
0.0
 40
124.2013
 50
255.0009
 51
71.94344
  0
ARC
  8
0
 10
195.9967
 20
-859.0936
 30
0.0
 40
108.0247
 50
192.7318
 51
14.41722
  0
LINE
  8
0
 10
90.62808
 20
-882.9009
 30
0.0
 11
90.62808
 21
-717.0406
 31
0.0
  0
ARC
  8
0
 10
86.17647
 20
-589.6901
 30
0.0
 40
127.428
 50
272.0019
 51
357.9974
  0
ARC
  8
0
 10
86.17644
 20
-598.5953
 30
0.0
 40
127.428
 50
2.002234
 51
87.99773
  0
ARC
  8
0
 10
95.08077
 20
-598.5953
 30
0.0
 40
127.428
 50
92.00208
 51
177.9976
  0
ARC
  8
0
 10
95.08077
 20
-589.6901
 30
0.0
 40
127.428
 50
182.0022
 51
267.9977
  0
LINE
  8
0
 10
90.62808
 20
-717.0406
 30
0.0
 11
90.62808
 21
-882.9009
 31
0.0
  0
ARC
  8
0
 10
-27.82726
 20
-851.6019
 30
0.0
 40
122.5205
 50
263.2004
 51
345.1991
  0
CIRCLE
  8
0
 10
1000
 20
7000
 30
0.0
 40
100
  0
CIRCLE
  8
0
 10
2500
 20
7000
 30
0.0
 40
100
  0
CIRCLE
  8
0
 10
4000
 20
7000
 30
0.0
 40
100
  0
CIRCLE
  8
0
 10
100
 20
100
 30
0.0
 40
126
  0
CIRCLE
  8
0
 10
200
 20
200
 30
0.0
 40
200
  0
CIRCLE
  8
0
 10
300
 20
300
 30
0.0
 40
200
  0
CIRCLE
  8
0
 10
350
 20
350
 30
0.0
 40
200
  0
CIRCLE
  8
0
 10
360
 20
360
 30
0.0
 40
200
  0
CIRCLE
  8
0
 10
370
 20
370
 30
0.0
 40
200
  0
ENDSEC
  0
EOF
