  0
SECTION
  2
ENTITIES
  0
ARC
  8
0
 10
-425.619
 20
433.9425
 30
0.0
 40
172.1947
 50
294.5828
 51
354.9837
  0
ARC
  8
0
 10
-425.619
 20
433.9425
 30
0.0
 40
172.1947
 50
294.5828
 51
354.9837
  0
ARC
  8
0
 10
-606.6992
 20
-193.3609
 30
0.0
 40
706.5295
 50
42.68987
 51
60.0608
  0
ARC
  8
0
 10
304.44
 20
256.438
 30
0.0
 40
392.9058
 50
175.7304
 51
198.6037
  0
ARC
  8
0
 10
304.44
 20
256.438
 30
0.0
 40
392.9058
 50
175.7304
 51
198.6037
  0
ARC
  8
0
 10
37.31151
 20
284.0559
 30
0.0
 40
124.6976
 50
145.2593
 51
179.2504
  0
ARC
  8
0
 10
-15.92243
 20
122.0659
 30
0.0
 40
238.1944
 50
37.25062
 51
101.9292
  0
ARC
  8
0
 10
-29.99273
 20
299.0757
 30
0.0
 40
206.301
 50
281.3907
 51
350.8431
  0
ARC
  8
0
 10
-63.25786
 20
34.32964
 30
0.0
 40
96.87379
 50
40.18484
 51
92.76738
  0
ARC
  8
0
 10
-58.98463
 20
89.46674
 30
0.0
 40
42.57588
 50
102.1355
 51
164.35
  0
ARC
  8
0
 10
-434.0935
 20
-109.0651
 30
0.0
 40
394.6363
 50
32.15287
 51
78.28809
  0
ARC
  8
0
 10
-434.0935
 20
-109.0651
 30
0.0
 40
394.6363
 50
32.15287
 51
78.28809
  0
LINE
  8
0
 10
-99.98208
 20
100.9522
 30
0.0
 11
-367.157
 21
165.616
 31
0.0
  0
ARC
  8
0
 10
-533.2059
 20
50.93785
 30
0.0
 40
201.8002
 50
337.407
 51
34.63009
  0
LINE
  8
0
 10
-346.892
 20
-26.58897
 30
0.0
 11
-251.2278
 21
-29.0586
 31
0.0
  0
ARC
  8
0
 10
-41.27489
 20
-182.6203
 30
0.0
 40
260.1181
 50
102.9143
 51
143.818
  0
ARC
  8
0
 10
-41.27489
 20
-182.6203
 30
0.0
 40
260.1181
 50
102.9143
 51
143.818
  0
ARC
  8
0
 10
-51.253
 20
-177.7778
 30
0.0
 40
249.2134
 50
143.3626
 51
159.4154
  0
ARC
  8
0
 10
-81.74997
 20
16.9272
 30
0.0
 40
229.3402
 50
207.8349
 51
275.3086
  0
ARC
  8
0
 10
-298.9612
 20
-46.65503
 30
0.0
 40
289.8259
 50
325.3518
 51
16.89873
  0
ARC
  8
0
 10
-21.05392
 20
146.362
 30
0.0
 40
108.7718
 50
223.9155
 51
269.6864
  0
ARC
  8
0
 10
-29.34284
 20
87.27681
 30
0.0
 40
71.95079
 50
169.0434
 51
193.1413
  0
ARC
  8
0
 10
-29.34284
 20
87.27681
 30
0.0
 40
71.95079
 50
169.0434
 51
193.1413
  0
ARC
  8
0
 10
-21.05392
 20
146.362
 30
0.0
 40
108.7718
 50
223.9155
 51
269.6864
  0
ARC
  8
0
 10
-38.91108
 20
85.51417
 30
0.0
 40
50.93628
 50
289.8087
 51
12.84493
  0
ARC
  8
0
 10
203.1404
 20
238.6334
 30
0.0
 40
238.9974
 50
216.3908
 51
269.817
  0
ARC
  8
0
 10
238.0371
 20
-210.7118
 30
0.0
 40
213.3506
 50
358.5476
 51
99.62191
  0
LINE
  8
0
 10
451.3211
 20
-216.1186
 30
0.0
 11
432.5196
 21
-309.9495
 31
0.0
  0
LINE
  8
0
 10
432.5196
 20
-309.9495
 30
0.0
 11
451.3211
 21
-216.1186
 31
0.0
  0
ARC
  8
0
 10
559.5834
 20
-45.81712
 30
0.0
 40
201.8002
 50
237.555
 51
294.7782
  0
LINE
  8
0
 10
644.1592
 20
-229.0391
 30
0.0
 11
534.735
 21
-481.21
 31
0.0
  0
ARC
  8
0
 10
384.9816
 20
-116.091
 30
0.0
 40
394.6363
 50
292.3011
 51
338.4362
  0
ARC
  8
0
 10
918.5311
 20
-217.3503
 30
0.0
 40
172.1947
 50
194.7307
 51
255.1318
  0
ARC
  8
0
 10
331.4622
 20
68.39236
 30
0.0
 40
706.5295
 50
302.838
 51
320.209
  0
ARC
  8
0
 10
618.7304
 20
-906.2719
 30
0.0
 40
392.9058
 50
75.87846
 51
98.75187
  0
ARC
  8
0
 10
618.7304
 20
-906.2719
 30
0.0
 40
392.9058
 50
75.87846
 51
98.75187
  0
ARC
  8
0
 10
691.6473
 20
-647.8083
 30
0.0
 40
124.6976
 50
45.40737
 51
79.39844
  0
ARC
  8
0
 10
541.1544
 20
-567.6426
 30
0.0
 40
238.1944
 50
297.3988
 51
2.0772
  0
ARC
  8
0
 10
717.9614
 20
-584.0664
 30
0.0
 40
206.301
 50
181.5387
 51
250.9912
  0
ARC
  8
0
 10
462.8112
 20
-505.9935
 30
0.0
 40
96.87379
 50
300.333
 51
352.9155
  0
ARC
  8
0
 10
516.4041
 20
-519.6376
 30
0.0
 40
42.57588
 50
2.283601
 51
64.49802
  0
ARC
  8
0
 10
509.1746
 20
-548.4676
 30
0.0
 40
71.95079
 50
69.19147
 51
93.28952
  0
ARC
  8
0
 10
245.2992
 20
-490.5316
 30
0.0
 40
260.1181
 50
3.062324
 51
43.96604
  0
ARC
  8
0
 10
251.7777
 20
-481.5293
 30
0.0
 40
249.2134
 50
43.51069
 51
59.56342
  0
ARC
  8
0
 10
448.8294
 20
-484.7962
 30
0.0
 40
229.3402
 50
107.9831
 51
175.4566
  0
ARC
  8
0
 10
423.3501
 20
-259.9091
 30
0.0
 40
289.8259
 50
225.4999
 51
277.0469
  0
ARC
  8
0
 10
565.9703
 20
-566.7437
 30
0.0
 40
108.7718
 50
124.0636
 51
169.8346
  0
ARC
  8
0
 10
565.9703
 20
-566.7437
 30
0.0
 40
108.7718
 50
124.0636
 51
169.8346
  0
ARC
  8
0
 10
509.075
 20
-538.7388
 30
0.0
 40
50.93628
 50
189.9568
 51
272.9931
  0
ARC
  8
0
 10
509.075
 20
-538.7388
 30
0.0
 40
50.93628
 50
189.9568
 51
272.9931
  0
ARC
  8
0
 10
129.5537
 20
-399.1673
 30
0.0
 40
361.2323
 50
251.1099
 51
335.7476
  0
ARC
  8
0
 10
-45.85522
 20
-977.2974
 30
0.0
 40
243.4749
 50
76.10764
 51
148.7845
  0
CIRCLE
  8
0
 10
1000
 20
7000
 30
0.0
 40
100
  0
CIRCLE
  8
0
 10
3500
 20
7000
 30
0.0
 40
100
  0
CIRCLE
  8
0
 10
6000
 20
7000
 30
0.0
 40
100
  0
CIRCLE
  8
0
 10
100
 20
100
 30
0.0
 40
125
  0
CIRCLE
  8
0
 10
200
 20
200
 30
0.0
 40
200
  0
CIRCLE
  8
0
 10
300
 20
300
 30
0.0
 40
200
  0
CIRCLE
  8
0
 10
350
 20
350
 30
0.0
 40
200
  0
CIRCLE
  8
0
 10
360
 20
360
 30
0.0
 40
200
  0
CIRCLE
  8
0
 10
370
 20
370
 30
0.0
 40
200
  0
ENDSEC
  0
EOF
