  0
SECTION
  2
ENTITIES
  0
LINE
  8
0
 10
4608.597
 20
1665.389
 30
0.0
 11
4608.597
 21
1531.889
 31
0.0
  0
LINE
  8
0
 10
4608.597
 20
1531.889
 30
0.0
 11
5035.797
 21
1326.298
 31
0.0
  0
LINE
  8
0
 10
5035.797
 20
1326.298
 30
0.0
 11
5035.797
 21
1192.798
 31
0.0
  0
LINE
  8
0
 10
5035.797
 20
1192.798
 30
0.0
 11
4608.597
 21
987.209
 31
0.0
  0
CIRCLE
  8
0
 10
1000
 20
6000
 30
0.0
 40
100
  0
CIRCLE
  8
0
 10
2000
 20
8000
 30
0.0
 40
100
  0
CIRCLE
  8
0
 10
3000
 20
6000
 30
0.0
 40
100
  0
CIRCLE
  8
0
 10
100
 20
100
 30
0.0
 40
125
  0
CIRCLE
  8
0
 10
200
 20
200
 30
0.0
 40
200
  0
CIRCLE
  8
0
 10
300
 20
300
 30
0.0
 40
200
  0
CIRCLE
  8
0
 10
350
 20
350
 30
0.0
 40
200
  0
CIRCLE
  8
0
 10
360
 20
360
 30
0.0
 40
200
  0
CIRCLE
  8
0
 10
370
 20
370
 30
0.0
 40
200
  0
ENDSEC
  0
EOF
