  0
SECTION
  2
ENTITIES
  0
ARC
  8
0
 10
804.2191
 20
1513.052
 30
0.0
 40
623.1788
 50
151.8257
 51
177.7729
  0
ARC
  8
0
 10
803.9366
 20
1567.902
 30
0.0
 40
623.1788
 50
182.8175
 51
208.7647
  0
ARC
  8
0
 10
643.7159
 20
2101.647
 30
0.0
 40
918.6815
 50
245.1509
 51
264.9438
  0
ARC
  8
0
 10
467.2321
 20
2100.243
 30
0.0
 40
918.6815
 50
275.9679
 51
295.7609
  0
ARC
  8
0
 10
315.5253
 20
1564.016
 30
0.0
 40
623.1788
 50
332.147
 51
358.0942
  0
ARC
  8
0
 10
315.7938
 20
1511.906
 30
0.0
 40
623.1788
 50
2.496023
 51
28.44326
  0
ARC
  8
0
 10
699.1547
 20
1432.236
 30
0.0
 40
410.8867
 50
54.14436
 51
66.38495
  0
ARC
  8
0
 10
1405.165
 20
2496.608
 30
0.0
 40
866.8396
 50
237.5328
 51
252.9171
  0
ARC
  8
0
 10
290.4355
 20
1448.34
 30
0.0
 40
887.694
 50
5.807361
 51
14.32769
  0
ARC
  8
0
 10
289.5135
 20
1627.317
 30
0.0
 40
887.694
 50
346.2626
 51
354.7829
  0
ARC
  8
0
 10
1357.883
 20
748.2988
 30
0.0
 40
699.2686
 50
92.67553
 51
107.1389
  0
ARC
  8
0
 10
1292.604
 20
748.2986
 30
0.0
 40
699.2686
 50
72.86144
 51
87.32479
  0
ARC
  8
0
 10
2360.971
 20
1627.32
 30
0.0
 40
887.694
 50
185.2175
 51
193.7379
  0
ARC
  8
0
 10
2360.05
 20
1448.343
 30
0.0
 40
887.694
 50
165.6725
 51
174.1928
  0
ARC
  8
0
 10
1245.317
 20
2496.607
 30
0.0
 40
866.8396
 50
287.0832
 51
302.4676
  0
ARC
  8
0
 10
1951.331
 20
1432.238
 30
0.0
 40
410.8867
 50
113.6152
 51
125.8558
  0
ARC
  8
0
 10
2334.691
 20
1511.909
 30
0.0
 40
623.1788
 50
151.5569
 51
177.5042
  0
ARC
  8
0
 10
2334.959
 20
1564.019
 30
0.0
 40
623.1788
 50
181.9062
 51
207.8534
  0
ARC
  8
0
 10
1952.44
 20
1647.633
 30
0.0
 40
410.8867
 50
233.5545
 51
245.7951
  0
ARC
  8
0
 10
1235.504
 20
590.5892
 30
0.0
 40
866.8396
 50
56.94265
 51
72.32698
  0
ARC
  8
0
 10
2134.05
 20
1581.42
 30
0.0
 40
653.4521
 50
195.471
 51
220.7779
  0
ARC
  8
0
 10
1004.505
 20
648.6693
 30
0.0
 40
811.7063
 50
26.22862
 51
38.5603
  0
ARC
  8
0
 10
1243.565
 20
1782.168
 30
0.0
 40
913.4569
 50
275.192
 51
302.1876
  0
ARC
  8
0
 10
1406.919
 20
1782.168
 30
0.0
 40
913.4569
 50
237.8127
 51
264.8083
  0
ARC
  8
0
 10
1645.983
 20
648.6703
 30
0.0
 40
811.7063
 50
141.44
 51
153.7717
  0
ARC
  8
0
 10
516.4354
 20
1581.417
 30
0.0
 40
653.4521
 50
319.2225
 51
344.5294
  0
ARC
  8
0
 10
1414.984
 20
590.5894
 30
0.0
 40
866.8396
 50
107.6733
 51
123.0577
  0
ARC
  8
0
 10
698.0451
 20
1647.631
 30
0.0
 40
410.8867
 50
294.2054
 51
306.4459
  0
ARC
  8
0
 10
-2105.039
 20
2993.357
 30
0.0
 40
3429.32
 50
326.2272
 51
329.7939
  0
ARC
  8
0
 10
515.2718
 20
401.818
 30
0.0
 40
724.3571
 50
71.28557
 51
86.52975
  0
ARC
  8
0
 10
606.3632
 20
402.0321
 30
0.0
 40
724.3571
 50
93.73975
 51
108.9839
  0
ARC
  8
0
 10
-290.0262
 20
716.7319
 30
0.0
 40
757.4232
 50
4.461058
 51
29.26448
  0
ARC
  8
0
 10
-290.0266
 20
834.5752
 30
0.0
 40
757.4232
 50
330.7358
 51
355.5393
  0
ARC
  8
0
 10
606.361
 20
1149.28
 30
0.0
 40
724.3571
 50
251.0166
 51
266.2607
  0
ARC
  8
0
 10
515.2696
 20
1149.494
 30
0.0
 40
724.3571
 50
273.4706
 51
288.7148
  0
ARC
  8
0
 10
1406.33
 20
834.585
 30
0.0
 40
757.4232
 50
184.4616
 51
209.265
  0
ARC
  8
0
 10
1406.331
 20
716.7319
 30
0.0
 40
757.4232
 50
150.7355
 51
175.5389
  0
ARC
  8
0
 10
479.5259
 20
271.6253
 30
0.0
 40
859.1719
 50
59.13256
 51
71.81338
  0
ARC
  8
0
 10
1519.406
 20
712.8501
 30
0.0
 40
669.7994
 50
153.9112
 51
174.6196
  0
ARC
  8
0
 10
1519.406
 20
838.4676
 30
0.0
 40
669.7994
 50
185.3808
 51
206.0892
  0
ARC
  8
0
 10
1406.925
 20
-230.851
 30
0.0
 40
913.4569
 50
95.19214
 51
122.1878
  0
ARC
  8
0
 10
1243.566
 20
-230.8513
 30
0.0
 40
913.4569
 50
57.81251
 51
84.80814
  0
ARC
  8
0
 10
1131.081
 20
838.467
 30
0.0
 40
669.7994
 50
333.9111
 51
354.6194
  0
ARC
  8
0
 10
1131.082
 20
712.8495
 30
0.0
 40
669.7994
 50
5.380688
 51
26.08907
  0
ARC
  8
0
 10
2170.963
 20
271.628
 30
0.0
 40
859.1719
 50
108.1868
 51
120.8677
  0
ARC
  8
0
 10
4755.52
 20
2993.368
 30
0.0
 40
3429.32
 50
210.2065
 51
213.7732
  0
ARC
  8
0
 10
4755.52
 20
2993.368
 30
0.0
 40
3429.32
 50
210.2065
 51
213.7732
  0
ARC
  8
0
 10
1244.157
 20
716.7316
 30
0.0
 40
757.4232
 50
4.461381
 51
29.2648
  0
ARC
  8
0
 10
1244.157
 20
834.5848
 30
0.0
 40
757.4232
 50
330.7353
 51
355.5388
  0
ARC
  8
0
 10
4755.521
 20
-1442.05
 30
0.0
 40
3429.32
 50
146.2268
 51
149.7935
  0
ARC
  8
0
 10
4755.521
 20
-1442.05
 30
0.0
 40
3429.32
 50
146.2268
 51
149.7935
  0
ARC
  8
0
 10
2170.963
 20
1279.689
 30
0.0
 40
859.1719
 50
239.1326
 51
251.8135
  0
ARC
  8
0
 10
1004.505
 20
902.6471
 30
0.0
 40
811.7063
 50
321.4399
 51
333.7715
  0
ARC
  8
0
 10
2134.05
 20
-30.10306
 30
0.0
 40
653.4521
 50
139.2221
 51
164.529
  0
ARC
  8
0
 10
1292.604
 20
803.0178
 30
0.0
 40
699.2686
 50
272.6754
 51
287.1387
  0
ARC
  8
0
 10
1357.883
 20
803.0179
 30
0.0
 40
699.2686
 50
252.8616
 51
267.325
  0
ARC
  8
0
 10
516.4401
 20
-30.10558
 30
0.0
 40
653.4521
 50
15.47118
 51
40.77806
  0
ARC
  8
0
 10
1645.982
 20
902.6481
 30
0.0
 40
811.7063
 50
206.2288
 51
218.5604
  0
ARC
  8
0
 10
479.5229
 20
1279.686
 30
0.0
 40
859.1719
 50
288.187
 51
300.8678
  0
ARC
  8
0
 10
-2105.026
 20
-1442.061
 30
0.0
 40
3429.32
 50
30.2067
 51
33.77337
  0
ARC
  8
0
 10
467.2398
 20
-548.9316
 30
0.0
 40
918.6815
 50
64.23968
 51
84.03268
  0
ARC
  8
0
 10
643.7236
 20
-550.335
 30
0.0
 40
918.6815
 50
95.05658
 51
114.8496
  0
CIRCLE
  8
0
 10
1000
 20
7000
 30
0.0
 40
100
  0
CIRCLE
  8
0
 10
4000
 20
7000
 30
0.0
 40
100
  0
CIRCLE
  8
0
 10
100
 20
100
 30
0.0
 40
125
  0
CIRCLE
  8
0
 10
200
 20
200
 30
0.0
 40
200
  0
CIRCLE
  8
0
 10
300
 20
300
 30
0.0
 40
200
  0
CIRCLE
  8
0
 10
350
 20
350
 30
0.0
 40
200
  0
CIRCLE
  8
0
 10
360
 20
360
 30
0.0
 40
200
  0
CIRCLE
  8
0
 10
370
 20
370
 30
0.0
 40
200
  0
ENDSEC
  0
EOF
