  0
SECTION
  2
ENTITIES
  0
ARC
  8
0
 10
-4.035021
 20
420.6162
 30
0.0
 40
87.47692
 50
39.50214
 51
87.35596
  0
ARC
  8
0
 10
130.9595
 20
531.9055
 30
0.0
 40
87.47692
 50
219.5021
 51
267.3559
  0
ARC
  8
0
 10
122.8883
 20
357.1378
 30
0.0
 40
87.47692
 50
39.50214
 51
87.35596
  0
ARC
  8
0
 10
257.8828
 20
468.427
 30
0.0
 40
87.47692
 50
219.5021
 51
267.3559
  0
ARC
  8
0
 10
249.8117
 20
293.6595
 30
0.0
 40
87.47692
 50
39.50214
 51
87.35596
  0
ARC
  8
0
 10
384.8062
 20
404.9486
 30
0.0
 40
87.47692
 50
219.5021
 51
267.3559
  0
ARC
  8
0
 10
376.7351
 20
230.1811
 30
0.0
 40
87.47692
 50
39.50214
 51
87.35596
  0
ARC
  8
0
 10
511.7296
 20
341.4702
 30
0.0
 40
87.47692
 50
219.5021
 51
267.3559
  0
ARC
  8
0
 10
511.7594
 20
166.7041
 30
0.0
 40
87.47692
 50
92.66367
 51
140.5175
  0
ARC
  8
0
 10
376.727
 20
277.9473
 30
0.0
 40
87.47692
 50
272.6635
 51
320.5174
  0
ARC
  8
0
 10
384.8576
 20
103.1825
 30
0.0
 40
87.47692
 50
92.66367
 51
140.5175
  0
ARC
  8
0
 10
249.8252
 20
214.4257
 30
0.0
 40
87.47692
 50
272.6635
 51
320.5174
  0
ARC
  8
0
 10
257.9558
 20
39.66091
 30
0.0
 40
87.47692
 50
92.66367
 51
140.5175
  0
ARC
  8
0
 10
122.9235
 20
150.9041
 30
0.0
 40
87.47692
 50
272.6635
 51
320.5174
  0
ARC
  8
0
 10
131.0541
 20
-23.8607
 30
0.0
 40
87.47692
 50
92.66367
 51
140.5175
  0
ARC
  8
0
 10
-3.978274
 20
87.38247
 30
0.0
 40
87.47692
 50
272.6635
 51
320.5174
  0
CIRCLE
  8
0
 10
1000
 20
7000
 30
0.0
 40
100
  0
CIRCLE
  8
0
 10
1000
 20
8000
 30
0.0
 40
100
  0
CIRCLE
  8
0
 10
1500
 20
7000
 30
0.0
 40
100
  0
CIRCLE
  8
0
 10
1500
 20
8000
 30
0.0
 40
100
  0
CIRCLE
  8
0
 10
2000
 20
7000
 30
0.0
 40
100
  0
CIRCLE
  8
0
 10
2000
 20
8000
 30
0.0
 40
100
  0
CIRCLE
  8
0
 10
100
 20
100
 30
0.0
 40
125
  0
CIRCLE
  8
0
 10
200
 20
200
 30
0.0
 40
200
  0
CIRCLE
  8
0
 10
300
 20
300
 30
0.0
 40
200
  0
CIRCLE
  8
0
 10
350
 20
350
 30
0.0
 40
200
  0
CIRCLE
  8
0
 10
360
 20
360
 30
0.0
 40
200
  0
CIRCLE
  8
0
 10
370
 20
370
 30
0.0
 40
200
  0
ENDSEC
  0
EOF
