  0
SECTION
  2
ENTITIES
  0
ARC
  8
0
 10
-227.6331
 20
635.9794
 30
0.0
 40
604.6981
 50
313.4863
 51
349.6452
  0
ARC
  8
0
 10
304.0457
 20
101.6237
 30
0.0
 40
149.9759
 50
52.7779
 51
140.3869
  0
ARC
  8
0
 10
310.8939
 20
111.9774
 30
0.0
 40
137.5913
 50
259.4106
 51
52.44067
  0
ARC
  8
0
 10
310.8939
 20
111.9774
 30
0.0
 40
137.5913
 50
259.4106
 51
52.44067
  0
ARC
  8
0
 10
304.0457
 20
101.6237
 30
0.0
 40
149.9759
 50
52.7779
 51
140.3869
  0
ARC
  8
0
 10
14.26355
 20
211.871
 30
0.0
 40
174.8582
 50
355.2031
 51
178.6169
  0
ARC
  8
0
 10
-277.5409
 20
97.5488
 30
0.0
 40
166.5556
 50
45.37603
 51
265.5559
  0
ARC
  8
0
 10
-120.159
 20
-160.8102
 30
0.0
 40
193.6959
 50
151.5398
 51
331.2621
  0
ARC
  8
0
 10
278.5519
 20
-55.60262
 30
0.0
 40
302.8537
 50
220.9118
 51
247.9201
  0
ARC
  8
0
 10
221.2325
 20
-178.2411
 30
0.0
 40
167.8098
 50
250.3165
 51
67.44165
  0
LINE
  8
0
 10
285.609
 20
-23.27063
 30
0.0
 11
176.868
 21
3.876258
 31
0.0
  0
ARC
  8
0
 10
-1.499888
 20
-.6912774
 30
0.0
 40
178.4263
 50
1.468475
 51
88.53012
  0
ARC
  8
0
 10
7.649044
 20
-.6914079
 30
0.0
 40
178.4263
 50
91.46837
 51
178.53
  0
ARC
  8
0
 10
7.649228
 20
8.456635
 30
0.0
 40
178.4263
 50
181.4678
 51
268.5295
  0
ARC
  8
0
 10
-1.499704
 20
8.456875
 30
0.0
 40
178.4263
 50
271.4675
 51
358.5292
  0
LINE
  8
0
 10
176.868
 20
3.876258
 30
0.0
 11
285.609
 21
-23.27063
 31
0.0
  0
ARC
  8
0
 10
221.2325
 20
-178.2411
 30
0.0
 40
167.8098
 50
250.3165
 51
67.44165
  0
ARC
  8
0
 10
1113.584
 20
-346.6455
 30
0.0
 40
948.9326
 50
179.372
 51
194.4496
  0
ARC
  8
0
 10
383.0248
 20
-581.6006
 30
0.0
 40
188.3649
 50
358.017
 51
180.5569
  0
ARC
  8
0
 10
685.6918
 20
-693.8579
 30
0.0
 40
155.7927
 50
265.5567
 51
137.257
  0
ARC
  8
0
 10
531.8068
 20
-965.94
 30
0.0
 40
183.6953
 50
206.3637
 51
39.4649
  0
ARC
  8
0
 10
213.7197
 20
-946.4017
 30
0.0
 40
183.806
 50
129.1925
 51
326.6263
  0
LINE
  8
0
 10
97.56647
 20
-803.9475
 30
0.0
 11
206.3077
 21
-776.8007
 31
0.0
  0
ARC
  8
0
 10
384.6754
 20
-781.3682
 30
0.0
 40
178.4263
 50
91.46986
 51
178.5315
  0
ARC
  8
0
 10
375.5264
 20
-781.3683
 30
0.0
 40
178.4263
 50
1.470113
 51
88.53178
  0
ARC
  8
0
 10
375.5262
 20
-772.2202
 30
0.0
 40
178.4263
 50
271.4706
 51
358.5323
  0
ARC
  8
0
 10
384.6752
 20
-772.22
 30
0.0
 40
178.4263
 50
181.4711
 51
268.5327
  0
LINE
  8
0
 10
206.3077
 20
-776.8007
 30
0.0
 11
97.56647
 21
-803.9475
 31
0.0
  0
ARC
  8
0
 10
72.28145
 20
-668.6996
 30
0.0
 40
137.5913
 50
127.5593
 51
280.5896
  0
ARC
  8
0
 10
79.12968
 20
-679.0531
 30
0.0
 40
149.9759
 50
39.61327
 51
127.2221
  0
ARC
  8
0
 10
79.12968
 20
-679.0531
 30
0.0
 40
149.9759
 50
39.61327
 51
127.2221
  0
ARC
  8
0
 10
72.28145
 20
-668.6996
 30
0.0
 40
137.5913
 50
127.5593
 51
280.5896
  0
ARC
  8
0
 10
213.7197
 20
-946.4017
 30
0.0
 40
183.806
 50
129.1925
 51
326.6263
  0
CIRCLE
  8
0
 10
1000
 20
7000
 30
0.0
 40
100
  0
CIRCLE
  8
0
 10
3000
 20
7000
 30
0.0
 40
100
  0
CIRCLE
  8
0
 10
5000
 20
7000
 30
0.0
 40
100
  0
CIRCLE
  8
0
 10
100
 20
100
 30
0.0
 40
125
  0
CIRCLE
  8
0
 10
200
 20
200
 30
0.0
 40
200
  0
CIRCLE
  8
0
 10
300
 20
300
 30
0.0
 40
200
  0
CIRCLE
  8
0
 10
350
 20
350
 30
0.0
 40
200
  0
CIRCLE
  8
0
 10
360
 20
360
 30
0.0
 40
200
  0
CIRCLE
  8
0
 10
370
 20
370
 30
0.0
 40
200
  0
ENDSEC
  0
EOF
