  0
SECTION
  2
ENTITIES
  0
ARC
  8
0
 10
-450.1294
 20
499.8611
 30
0.0
 40
450.2026
 50
310.7876
 51
1.035098
  0
LINE
  8
0
 10
-156.0331
 20
158.9948
 30
0.0
 11
-503.9932
 21
-158.9971
 31
0.0
  0
ARC
  8
0
 10
-209.9146
 20
-499.8786
 30
0.0
 40
450.2026
 50
130.7845
 51
181.0319
  0
ARC
  8
0
 10
-209.915
 20
-516.1174
 30
0.0
 40
450.2026
 50
178.9651
 51
229.2126
  0
LINE
  8
0
 10
-504.0147
 20
-856.9816
 30
0.0
 11
-156.0742
 21
-1174.995
 31
0.0
  0
ARC
  8
0
 10
-450.1914
 20
-1515.843
 30
0.0
 40
450.2026
 50
358.9614
 51
49.20919
  0
CIRCLE
  8
0
 10
1000
 20
6000
 30
0.0
 40
100
  0
CIRCLE
  8
0
 10
3000
 20
8000
 30
0.0
 40
100
  0
CIRCLE
  8
0
 10
5000
 20
6000
 30
0.0
 40
100
  0
CIRCLE
  8
0
 10
100
 20
100
 30
0.0
 40
125
  0
CIRCLE
  8
0
 10
200
 20
200
 30
0.0
 40
200
  0
CIRCLE
  8
0
 10
300
 20
300
 30
0.0
 40
200
  0
CIRCLE
  8
0
 10
350
 20
350
 30
0.0
 40
200
  0
CIRCLE
  8
0
 10
360
 20
360
 30
0.0
 40
200
  0
CIRCLE
  8
0
 10
370
 20
370
 30
0.0
 40
200
  0
ENDSEC
  0
EOF
