  0
SECTION
  2
ENTITIES
  0
ARC
  8
0
 10
-118.2833
 20
249.4083
 30
0.0
 40
351.5133
 50
299.0118
 51
.748445
  0
LINE
  8
0
 10
52.19556
 20
-57.99786
 30
0.0
 11
-200.0002
 21
-196.0006
 31
0.0
  0
ARC
  8
0
 10
-29.51875
 20
-503.4053
 30
0.0
 40
351.5133
 50
119.0121
 51
180.7485
  0
ARC
  8
0
 10
-29.51876
 20
-512.5923
 30
0.0
 40
351.5133
 50
179.2514
 51
240.9878
  0
LINE
  8
0
 10
-200.0014
 20
-819.9963
 30
0.0
 11
52.19385
 21
-957.9999
 31
0.0
  0
ARC
  8
0
 10
-118.2862
 20
-1265.406
 30
0.0
 40
351.5133
 50
359.2513
 51
60.98831
  0
CIRCLE
  8
0
 10
1000
 20
7000
 30
0.0
 40
100
  0
CIRCLE
  8
0
 10
3000
 20
8000
 30
0.0
 40
100
  0
CIRCLE
  8
0
 10
5000
 20
7000
 30
0.0
 40
100
  0
CIRCLE
  8
0
 10
100
 20
100
 30
0.0
 40
125
  0
CIRCLE
  8
0
 10
200
 20
200
 30
0.0
 40
200
  0
CIRCLE
  8
0
 10
300
 20
300
 30
0.0
 40
200
  0
CIRCLE
  8
0
 10
350
 20
350
 30
0.0
 40
200
  0
CIRCLE
  8
0
 10
360
 20
360
 30
0.0
 40
200
  0
CIRCLE
  8
0
 10
370
 20
370
 30
0.0
 40
200
  0
ENDSEC
  0
EOF
