  0
SECTION
  2
ENTITIES
  0
ARC
  8
0
 10
-143.1877
 20
27.95258
 30
0.0
 40
398.1713
 50
304.2085
 51
355.9741
  0
LINE
  8
0
 10
80.66547
 20
-301.3348
 30
0.0
 11
-588.6766
 21
-714.669
 31
0.0
  0
ARC
  8
0
 10
-364.8147
 20
-1043.951
 30
0.0
 40
398.1713
 50
124.2099
 51
175.9755
  0
ARC
  8
0
 10
-364.8147
 20
-988.0582
 30
0.0
 40
398.1713
 50
184.0247
 51
235.7903
  0
LINE
  8
0
 10
-588.6766
 20
-1317.34
 30
0.0
 11
80.66547
 21
-1730.674
 31
0.0
  0
ARC
  8
0
 10
-143.1877
 20
-2059.961
 30
0.0
 40
398.1713
 50
4.026209
 51
55.79176
  0
CIRCLE
  8
0
 10
1000
 20
7000
 30
0.0
 40
100
  0
CIRCLE
  8
0
 10
2500
 20
7000
 30
0.0
 40
100
  0
CIRCLE
  8
0
 10
4500
 20
7000
 30
0.0
 40
100
  0
CIRCLE
  8
0
 10
100
 20
100
 30
0.0
 40
125
  0
CIRCLE
  8
0
 10
200
 20
200
 30
0.0
 40
200
  0
CIRCLE
  8
0
 10
300
 20
300
 30
0.0
 40
200
  0
CIRCLE
  8
0
 10
350
 20
350
 30
0.0
 40
200
  0
CIRCLE
  8
0
 10
360
 20
360
 30
0.0
 40
200
  0
CIRCLE
  8
0
 10
370
 20
370
 30
0.0
 40
200
  0
ENDSEC
  0
EOF
