  0
SECTION
  2
ENTITIES
  0
LINE
  8
0
 10
0
 20
2540
 30
0.0
 11
0
 21
0
 31
0.0
  0
LINE
  8
0
 10
0
 20
0
 30
0.0
 11
1778
 21
0
 31
0.0
  0
LINE
  8
0
 10
1778
 20
0
 30
0.0
 11
1778
 21
-2540
 31
0.0
  0
LINE
  8
0
 10
1778
 20
-2540
 30
0.0
 11
0
 21
-2540
 31
0.0
  0
CIRCLE
  8
0
 10
1000
 20
7000
 30
0.0
 40
100
  0
CIRCLE
  8
0
 10
4500
 20
7000
 30
0.0
 40
100
  0
CIRCLE
  8
0
 10
8000
 20
7000
 30
0.0
 40
100
  0
CIRCLE
  8
0
 10
100
 20
100
 30
0.0
 40
128
  0
CIRCLE
  8
0
 10
200
 20
200
 30
0.0
 40
200
  0
CIRCLE
  8
0
 10
300
 20
300
 30
0.0
 40
200
  0
CIRCLE
  8
0
 10
350
 20
350
 30
0.0
 40
200
  0
CIRCLE
  8
0
 10
360
 20
360
 30
0.0
 40
200
  0
CIRCLE
  8
0
 10
370
 20
370
 30
0.0
 40
200
  0
ENDSEC
  0
EOF
