  0
SECTION
  2
ENTITIES
  0
ARC
  8
0
 10
-235.4442
 20
247.8778
 30
0.0
 40
468.6842
 50
299.0118
 51
.748445
  0
LINE
  8
0
 10
-8.138514
 20
-161.9966
 30
0.0
 11
-298.7957
 21
-346.0006
 31
0.0
  0
ARC
  8
0
 10
-71.48688
 20
-755.8733
 30
0.0
 40
468.6842
 50
119.0121
 51
180.7485
  0
ARC
  8
0
 10
-71.48598
 20
-768.046
 30
0.0
 40
468.6842
 50
179.2602
 51
240.9966
  0
LINE
  8
0
 10
-298.7333
 20
-1177.953
 30
0.0
 11
-8.048582
 21
-1361.913
 31
0.0
  0
ARC
  8
0
 10
-235.4481
 20
-1771.873
 30
0.0
 40
468.6842
 50
359.2513
 51
60.98831
  0
CIRCLE
  8
0
 10
1000
 20
6000
 30
0.0
 40
100
  0
CIRCLE
  8
0
 10
3500
 20
8000
 30
0.0
 40
100
  0
CIRCLE
  8
0
 10
6000
 20
6000
 30
0.0
 40
100
  0
CIRCLE
  8
0
 10
100
 20
100
 30
0.0
 40
125
  0
CIRCLE
  8
0
 10
200
 20
200
 30
0.0
 40
200
  0
CIRCLE
  8
0
 10
300
 20
300
 30
0.0
 40
200
  0
CIRCLE
  8
0
 10
350
 20
350
 30
0.0
 40
200
  0
CIRCLE
  8
0
 10
360
 20
360
 30
0.0
 40
200
  0
CIRCLE
  8
0
 10
370
 20
370
 30
0.0
 40
200
  0
ENDSEC
  0
EOF
