  0
SECTION
  2
ENTITIES
  0
ARC
  8
0
 10
-449.5803
 20
823.4821
 30
0.0
 40
459.74
 50
297.6822
 51
347.9319
  0
ARC
  8
0
 10
-51.34256
 20
61.53558
 30
0.0
 40
400.0029
 50
117.4933
 51
175.579
  0
ARC
  8
0
 10
-51.6353
 20
68.6275
 30
0.0
 40
399.2271
 50
176.5901
 51
210.1076
  0
ARC
  8
0
 10
-257.8482
 20
-52.60582
 30
0.0
 40
160.0281
 50
209.5938
 51
334.8425
  0
ARC
  8
0
 10
11.42984
 20
-166.8921
 30
0.0
 40
132.7497
 50
94.93906
 51
159.6075
  0
ARC
  8
0
 10
-3.823761
 20
-161.9105
 30
0.0
 40
127.3373
 50
333.3642
 51
88.27808
  0
ARC
  8
0
 10
-109.3707
 20
-89.62282
 30
0.0
 40
254.6791
 50
278.3733
 51
329.4695
  0
ARC
  8
0
 10
-33.7772
 20
-880.7501
 30
0.0
 40
540.5364
 50
94.08513
 51
138.3861
  0
ARC
  8
0
 10
-343.8979
 20
-584.9122
 30
0.0
 40
113.2389
 50
146.1139
 51
229.1272
  0
ARC
  8
0
 10
-367.4643
 20
-590.5167
 30
0.0
 40
94.64365
 50
237.727
 51
346.6196
  0
ARC
  8
0
 10
-118.8165
 20
-699.8373
 30
0.0
 40
179.3243
 50
19.43874
 51
150.8244
  0
ARC
  8
0
 10
-201.3264
 20
-722.1976
 30
0.0
 40
264.6491
 50
309.9388
 51
18.05875
  0
ARC
  8
0
 10
412.9506
 20
-1499.7
 30
0.0
 40
726.3785
 50
127.7179
 51
157.2671
  0
ARC
  8
0
 10
-684.5461
 20
-1083.593
 30
0.0
 40
448.4766
 50
304.1489
 51
342.4265
  0
ARC
  8
0
 10
-315.5467
 20
-1567.842
 30
0.0
 40
162.9081
 50
136.0325
 51
217.0486
  0
ARC
  8
0
 10
-305.6195
 20
-1530.41
 30
0.0
 40
194.8547
 50
224.0928
 51
343.7308
  0
ARC
  8
0
 10
62.83366
 20
-1646.24
 30
0.0
 40
191.46
 50
104.6433
 51
161.3455
  0
ARC
  8
0
 10
50.84693
 20
-1648.756
 30
0.0
 40
191.2556
 50
358.1284
 51
100.9758
  0
ARC
  8
0
 10
-9.338509
 20
-1644.573
 30
0.0
 40
251.5553
 50
306.4173
 51
357.6236
  0
ARC
  8
0
 10
392.2373
 20
-2162.227
 30
0.0
 40
403.7201
 50
128.6661
 51
166.3044
  0
CIRCLE
  8
0
 10
1000
 20
7000
 30
0.0
 40
100
  0
CIRCLE
  8
0
 10
2500
 20
8000
 30
0.0
 40
100
  0
CIRCLE
  8
0
 10
4000
 20
7000
 30
0.0
 40
100
  0
CIRCLE
  8
0
 10
100
 20
100
 30
0.0
 40
125
  0
CIRCLE
  8
0
 10
200
 20
200
 30
0.0
 40
200
  0
CIRCLE
  8
0
 10
300
 20
300
 30
0.0
 40
200
  0
CIRCLE
  8
0
 10
350
 20
350
 30
0.0
 40
200
  0
CIRCLE
  8
0
 10
360
 20
360
 30
0.0
 40
200
  0
CIRCLE
  8
0
 10
370
 20
370
 30
0.0
 40
200
  0
ENDSEC
  0
EOF
