  0
SECTION
  2
ENTITIES
  0
LINE
  8
0
 10
0
 20
76.2
 30
0.0
 11
0
 21
0
 31
0.0
  0
LINE
  8
0
 10
0
 20
0
 30
0.0
 11
258.7841
 21
0
 31
0.0
  0
LINE
  8
0
 10
258.7841
 20
0
 30
0.0
 11
517.5682
 21
0
 31
0.0
  0
LINE
  8
0
 10
517.5682
 20
0
 30
0.0
 11
517.5682
 21
-76.2
 31
0.0
  0
LINE
  8
0
 10
517.5682
 20
-76.2
 30
0.0
 11
258.7841
 21
-76.2
 31
0.0
  0
LINE
  8
0
 10
258.7841
 20
-76.2
 30
0.0
 11
0
 21
-76.2
 31
0.0
  0
CIRCLE
  8
0
 10
1000
 20
7000
 30
0.0
 40
100
  0
CIRCLE
  8
0
 10
2000
 20
7000
 30
0.0
 40
100
  0
CIRCLE
  8
0
 10
3000
 20
7000
 30
0.0
 40
100
  0
CIRCLE
  8
0
 10
100
 20
100
 30
0.0
 40
128
  0
CIRCLE
  8
0
 10
200
 20
200
 30
0.0
 40
200
  0
CIRCLE
  8
0
 10
300
 20
300
 30
0.0
 40
200
  0
CIRCLE
  8
0
 10
350
 20
350
 30
0.0
 40
200
  0
CIRCLE
  8
0
 10
360
 20
360
 30
0.0
 40
200
  0
CIRCLE
  8
0
 10
370
 20
370
 30
0.0
 40
200
  0
ENDSEC
  0
EOF
