  0
SECTION
  2
ENTITIES
  0
ARC
  8
0
 10
4087.935
 20
2468.635
 30
0.0
 40
405.8994
 50
281.0475
 51
357.5465
  0
ARC
  8
0
 10
4243.494
 20
1671.88
 30
0.0
 40
405.8994
 50
101.0476
 51
177.5466
  0
ARC
  8
0
 10
4243.494
 20
1706.633
 30
0.0
 40
405.8994
 50
182.4536
 51
258.9525
  0
ARC
  8
0
 10
4087.935
 20
909.879
 30
0.0
 40
405.8994
 50
2.453763
 51
78.95267
  0
CIRCLE
  8
0
 10
1000
 20
7000
 30
0.0
 40
100
  0
CIRCLE
  8
0
 10
2500
 20
8000
 30
0.0
 40
100
  0
CIRCLE
  8
0
 10
4000
 20
7000
 30
0.0
 40
100
  0
CIRCLE
  8
0
 10
100
 20
100
 30
0.0
 40
125
  0
CIRCLE
  8
0
 10
200
 20
200
 30
0.0
 40
200
  0
CIRCLE
  8
0
 10
300
 20
300
 30
0.0
 40
200
  0
CIRCLE
  8
0
 10
350
 20
350
 30
0.0
 40
200
  0
CIRCLE
  8
0
 10
360
 20
360
 30
0.0
 40
200
  0
CIRCLE
  8
0
 10
370
 20
370
 30
0.0
 40
200
  0
ENDSEC
  0
EOF
