  0
SECTION
  2
ENTITIES
  0
LINE
  8
0
 10
0
 20
0
 30
0.0
 11
285.9052
 21
-317.5
 31
0.0
  0
LINE
  8
0
 10
285.9052
 20
-317.5
 30
0.0
 11
0
 21
0
 31
0.0
  0
LINE
  8
0
 10
0
 20
0
 30
0.0
 11
190.2992
 21
0
 31
0.0
  0
LINE
  8
0
 10
190.2992
 20
0
 30
0.0
 11
380.5948
 21
-211.9971
 31
0.0
  0
LINE
  8
0
 10
380.5948
 20
-211.9971
 30
0.0
 11
475.2844
 21
-317.5
 31
0.0
  0
LINE
  8
0
 10
475.2844
 20
-317.5
 30
0.0
 11
380.5948
 21
-423.0029
 31
0.0
  0
LINE
  8
0
 10
380.5948
 20
-423.0029
 30
0.0
 11
285.9052
 21
-317.5
 31
0.0
  0
LINE
  8
0
 10
285.9052
 20
-317.5
 30
0.0
 11
380.5948
 21
-211.9971
 31
0.0
  0
LINE
  8
0
 10
380.5948
 20
-211.9971
 30
0.0
 11
570.8904
 21
0
 31
0.0
  0
LINE
  8
0
 10
571.6904
 20
0
 30
0.0
 11
761.9896
 21
0
 31
0.0
  0
LINE
  8
0
 10
761.1896
 20
0
 30
0.0
 11
475.2844
 21
-317.5
 31
0.0
  0
LINE
  8
0
 10
475.2844
 20
-317.5
 30
0.0
 11
761.1896
 21
-635
 31
0.0
  0
LINE
  8
0
 10
761.9896
 20
-634.9913
 30
0.0
 11
571.6904
 21
-634.9913
 31
0.0
  0
LINE
  8
0
 10
570.8904
 20
-635
 30
0.0
 11
380.5948
 21
-423.0029
 31
0.0
  0
LINE
  8
0
 10
380.5948
 20
-423.0029
 30
0.0
 11
190.2992
 21
-635
 31
0.0
  0
LINE
  8
0
 10
190.2992
 20
-634.9913
 30
0.0
 11
0
 21
-634.9913
 31
0.0
  0
LINE
  8
0
 10
0
 20
-635
 30
0.0
 11
285.9052
 21
-317.5
 31
0.0
  0
LINE
  8
0
 10
285.9052
 20
-317.5
 30
0.0
 11
0
 21
-635
 31
0.0
  0
CIRCLE
  8
0
 10
1000
 20
7000
 30
0.0
 40
100
  0
CIRCLE
  8
0
 10
2500
 20
7000
 30
0.0
 40
100
  0
CIRCLE
  8
0
 10
4000
 20
7000
 30
0.0
 40
100
  0
CIRCLE
  8
0
 10
100
 20
100
 30
0.0
 40
125
  0
CIRCLE
  8
0
 10
200
 20
200
 30
0.0
 40
200
  0
CIRCLE
  8
0
 10
300
 20
300
 30
0.0
 40
200
  0
CIRCLE
  8
0
 10
350
 20
350
 30
0.0
 40
200
  0
CIRCLE
  8
0
 10
360
 20
360
 30
0.0
 40
200
  0
CIRCLE
  8
0
 10
370
 20
370
 30
0.0
 40
200
  0
ENDSEC
  0
EOF
