  0
SECTION
  2
ENTITIES
  0
ARC
  8
0
 10
-494.8503
 20
795.8276
 30
0.0
 40
749.6119
 50
313.7126
 51
357.413
  0
ARC
  8
0
 10
541.1702
 20
-287.8372
 30
0.0
 40
749.6119
 50
133.7124
 51
177.4127
  0
ARC
  8
0
 10
541.1722
 20
-220.2021
 30
0.0
 40
749.6119
 50
182.5839
 51
226.2843
  0
ARC
  8
0
 10
-494.9143
 20
-1303.804
 30
0.0
 40
749.6119
 50
2.583802
 51
46.28415
  0
CIRCLE
  8
0
 10
1000
 20
6000
 30
0.0
 40
100
  0
CIRCLE
  8
0
 10
2500
 20
8000
 30
0.0
 40
100
  0
CIRCLE
  8
0
 10
4000
 20
6000
 30
0.0
 40
100
  0
CIRCLE
  8
0
 10
100
 20
100
 30
0.0
 40
125
  0
CIRCLE
  8
0
 10
200
 20
200
 30
0.0
 40
199
  0
CIRCLE
  8
0
 10
300
 20
300
 30
0.0
 40
200
  0
CIRCLE
  8
0
 10
350
 20
350
 30
0.0
 40
200
  0
CIRCLE
  8
0
 10
360
 20
360
 30
0.0
 40
200
  0
CIRCLE
  8
0
 10
370
 20
370
 30
0.0
 40
200
  0
ENDSEC
  0
EOF
