  0
SECTION
  2
ENTITIES
  0
LINE
  8
0
 10
712.5443
 20
762
 30
0.0
 11
742.2462
 21
732.5666
 31
0.0
  0
LINE
  8
0
 10
742.2462
 20
732.5666
 30
0.0
 11
380.9198
 21
380.905
 31
0.0
  0
LINE
  8
0
 10
380.9198
 20
380.905
 30
0.0
 11
19.59337
 21
29.24342
 31
0.0
  0
LINE
  8
0
 10
19.59337
 20
29.24342
 30
0.0
 11
49.29532
 21
-.1899964
 31
0.0
  0
LINE
  8
0
 10
49.29532
 20
-.1899964
 30
0.0
 11
19.59337
 21
-29.62341
 31
0.0
  0
LINE
  8
0
 10
19.59337
 20
-29.62341
 30
0.0
 11
380.9198
 21
-381.285
 31
0.0
  0
LINE
  8
0
 10
381.138
 20
-381.095
 30
0.0
 11
742.6658
 21
-732.5496
 31
0.0
  0
LINE
  8
0
 10
742.6658
 20
-732.5496
 30
0.0
 11
712.9807
 21
-762
 31
0.0
  0
CIRCLE
  8
0
 10
1000
 20
7000
 30
0.0
 40
100
  0
CIRCLE
  8
0
 10
1000
 20
8000
 30
0.0
 40
100
  0
CIRCLE
  8
0
 10
2500
 20
7000
 30
0.0
 40
100
  0
CIRCLE
  8
0
 10
2500
 20
8000
 30
0.0
 40
100
  0
CIRCLE
  8
0
 10
100
 20
100
 30
0.0
 40
127
  0
CIRCLE
  8
0
 10
200
 20
200
 30
0.0
 40
200
  0
CIRCLE
  8
0
 10
300
 20
300
 30
0.0
 40
200
  0
CIRCLE
  8
0
 10
350
 20
350
 30
0.0
 40
200
  0
CIRCLE
  8
0
 10
360
 20
360
 30
0.0
 40
200
  0
CIRCLE
  8
0
 10
370
 20
370
 30
0.0
 40
200
  0
ENDSEC
  0
EOF
