  0
SECTION
  2
ENTITIES
  0
ARC
  8
0
 10
160.9586
 20
758.9582
 30
0.0
 40
253.0019
 50
336.4818
 51
.6888201
  0
LINE
  8
0
 10
392.9441
 20
657.9993
 30
0.0
 11
148.0017
 21
104.003
 31
0.0
  0
ARC
  8
0
 10
379.9852
 20
3.039569
 30
0.0
 40
253.0019
 50
156.4806
 51
180.6875
  0
ARC
  8
0
 10
379.985
 20
-3.037623
 30
0.0
 40
253.0019
 50
179.3108
 51
203.5178
  0
LINE
  8
0
 10
147.9985
 20
-103.9939
 30
0.0
 11
392.9236
 21
-657.9977
 31
0.0
  0
ARC
  8
0
 10
160.9351
 20
-758.9495
 30
0.0
 40
253.0019
 50
359.3094
 51
23.51667
  0
CIRCLE
  8
0
 10
1000
 20
7000
 30
0.0
 40
100
  0
CIRCLE
  8
0
 10
2000
 20
8000
 30
0.0
 40
100
  0
CIRCLE
  8
0
 10
3000
 20
7000
 30
0.0
 40
100
  0
CIRCLE
  8
0
 10
100
 20
100
 30
0.0
 40
125
  0
CIRCLE
  8
0
 10
200
 20
200
 30
0.0
 40
200
  0
CIRCLE
  8
0
 10
300
 20
300
 30
0.0
 40
200
  0
CIRCLE
  8
0
 10
350
 20
350
 30
0.0
 40
200
  0
CIRCLE
  8
0
 10
360
 20
360
 30
0.0
 40
200
  0
CIRCLE
  8
0
 10
370
 20
370
 30
0.0
 40
200
  0
ENDSEC
  0
EOF
