  0
SECTION
  2
ENTITIES
  0
LINE
  8
0
 10
126.5302
 20
199.39
 30
0.0
 11
-.2686336
 21
99.48331
 31
0.0
  0
LINE
  8
0
 10
-.2686336
 20
99.48334
 30
0.0
 11
-127.0675
 21
199.39
 31
0.0
  0
LINE
  8
0
 10
-127.0675
 20
199.39
 30
0.0
 11
-.2686336
 21
99.48334
 31
0.0
  0
LINE
  8
0
 10
-.2686336
 20
99.48334
 30
0.0
 11
-127.0675
 21
-.4233233
 31
0.0
  0
LINE
  8
0
 10
-127.0675
 20
-.4233233
 30
0.0
 11
-.2686336
 21
-100.33
 31
0.0
  0
LINE
  8
0
 10
-.2686336
 20
-100.33
 30
0.0
 11
126.5302
 21
-200.2366
 31
0.0
  0
LINE
  8
0
 10
126.5302
 20
-200.2366
 30
0.0
 11
253.329
 21
-100.33
 31
0.0
  0
LINE
  8
0
 10
253.329
 20
-100.33
 30
0.0
 11
126.5302
 21
-200.2366
 31
0.0
  0
LINE
  8
0
 10
126.5302
 20
-200.2366
 30
0.0
 11
-.2686336
 21
-300.1433
 31
0.0
  0
LINE
  8
0
 10
-.2686336
 20
-300.1433
 30
0.0
 11
126.5302
 21
-400.05
 31
0.0
  0
CIRCLE
  8
0
 10
1000
 20
7000
 30
0.0
 40
100
  0
CIRCLE
  8
0
 10
1500
 20
7000
 30
0.0
 40
100
  0
CIRCLE
  8
0
 10
2000
 20
7000
 30
0.0
 40
100
  0
CIRCLE
  8
0
 10
100
 20
100
 30
0.0
 40
125
  0
CIRCLE
  8
0
 10
200
 20
200
 30
0.0
 40
200
  0
CIRCLE
  8
0
 10
300
 20
300
 30
0.0
 40
200
  0
CIRCLE
  8
0
 10
350
 20
350
 30
0.0
 40
200
  0
CIRCLE
  8
0
 10
360
 20
360
 30
0.0
 40
200
  0
CIRCLE
  8
0
 10
370
 20
370
 30
0.0
 40
200
  0
ENDSEC
  0
EOF
