  0
SECTION
  2
ENTITIES
  0
LINE
  8
0
 10
0
 20
50.8
 30
0.0
 11
0
 21
-8.89
 31
0.0
  0
LINE
  8
0
 10
0
 20
-8.89
 30
0.0
 11
254.4206
 21
-8.89
 31
0.0
  0
LINE
  8
0
 10
254.4206
 20
-8.89
 30
0.0
 11
508.8414
 21
-8.89
 31
0.0
  0
LINE
  8
0
 10
508.8414
 20
-8.89
 30
0.0
 11
763.262
 21
-8.89
 31
0.0
  0
LINE
  8
0
 10
763.262
 20
-8.89
 30
0.0
 11
763.262
 21
-68.58
 31
0.0
  0
LINE
  8
0
 10
763.262
 20
-68.58
 30
0.0
 11
508.8414
 21
-68.58
 31
0.0
  0
LINE
  8
0
 10
508.8414
 20
-68.58
 30
0.0
 11
254.4206
 21
-68.58
 31
0.0
  0
LINE
  8
0
 10
254.4206
 20
-68.58
 30
0.0
 11
0
 21
-68.58
 31
0.0
  0
CIRCLE
  8
0
 10
1000
 20
7000
 30
0.0
 40
100
  0
CIRCLE
  8
0
 10
2500
 20
7000
 30
0.0
 40
100
  0
CIRCLE
  8
0
 10
4000
 20
7000
 30
0.0
 40
100
  0
CIRCLE
  8
0
 10
100
 20
100
 30
0.0
 40
125
  0
CIRCLE
  8
0
 10
200
 20
200
 30
0.0
 40
200
  0
CIRCLE
  8
0
 10
300
 20
300
 30
0.0
 40
200
  0
CIRCLE
  8
0
 10
350
 20
350
 30
0.0
 40
200
  0
CIRCLE
  8
0
 10
360
 20
360
 30
0.0
 40
200
  0
CIRCLE
  8
0
 10
370
 20
370
 30
0.0
 40
200
  0
ENDSEC
  0
EOF
