  0
SECTION
  2
ENTITIES
  0
LINE
  8
0
 10
126.9998
 20
253.9997
 30
0.0
 11
12.99968
 21
44.99936
 31
0.0
  0
ARC
  8
0
 10
75.58725
 20
2.540578
 30
0.0
 40
75.63036
 50
145.8475
 51
181.9252
  0
ARC
  8
0
 10
75.58725
 20
-2.540565
 30
0.0
 40
75.63036
 50
178.075
 51
214.1526
  0
LINE
  8
0
 10
12.99933
 20
-44.99908
 30
0.0
 11
126.9978
 21
-254.0003
 31
0.0
  0
LINE
  8
0
 10
126.9978
 20
-254.0003
 30
0.0
 11
240.9963
 21
-463.0015
 31
0.0
  0
ARC
  8
0
 10
178.4084
 20
-505.4598
 30
0.0
 40
75.63036
 50
358.0745
 51
34.15216
  0
ARC
  8
0
 10
178.4084
 20
-510.541
 30
0.0
 40
75.63036
 50
325.8471
 51
1.924737
  0
LINE
  8
0
 10
240.996
 20
-553
 30
0.0
 11
126.9959
 21
-762.0003
 31
0.0
  0
CIRCLE
  8
0
 10
1000
 20
7000
 30
0.0
 40
100
  0
CIRCLE
  8
0
 10
1500
 20
8000
 30
0.0
 40
100
  0
CIRCLE
  8
0
 10
2000
 20
7000
 30
0.0
 40
100
  0
CIRCLE
  8
0
 10
100
 20
100
 30
0.0
 40
125
  0
CIRCLE
  8
0
 10
200
 20
200
 30
0.0
 40
200
  0
CIRCLE
  8
0
 10
300
 20
300
 30
0.0
 40
200
  0
CIRCLE
  8
0
 10
350
 20
350
 30
0.0
 40
200
  0
CIRCLE
  8
0
 10
360
 20
360
 30
0.0
 40
200
  0
CIRCLE
  8
0
 10
370
 20
370
 30
0.0
 40
200
  0
ENDSEC
  0
EOF
