  0
SECTION
  2
ENTITIES
  0
LINE
  8
0
 10
-257.804
 20
274.4584
 30
0.0
 11
-257.804
 21
0
 31
0.0
  0
LINE
  8
0
 10
-257.804
 20
0
 30
0.0
 11
0
 21
137.1807
 31
0.0
  0
LINE
  8
0
 10
0
 20
137.1807
 30
0.0
 11
257.804
 21
0
 31
0.0
  0
LINE
  8
0
 10
257.804
 20
0
 30
0.0
 11
0
 21
-137.1807
 31
0.0
  0
LINE
  8
0
 10
0
 20
-137.1807
 30
0.0
 11
0
 21
-371.3312
 31
0.0
  0
LINE
  8
0
 10
0
 20
-371.3312
 30
0.0
 11
0
 21
-137.1807
 31
0.0
  0
LINE
  8
0
 10
0
 20
-137.1807
 30
0.0
 11
-257.804
 21
0
 31
0.0
  0
LINE
  8
0
 10
-257.804
 20
0
 30
0.0
 11
-257.804
 21
-233.5416
 31
0.0
  0
LINE
  8
0
 10
-257.804
 20
-233.6387
 30
0.0
 11
0
 21
-370.8194
 31
0.0
  0
LINE
  8
0
 10
0
 20
-370.8194
 30
0.0
 11
257.804
 21
-233.6387
 31
0.0
  0
LINE
  8
0
 10
257.804
 20
-233.5416
 30
0.0
 11
257.804
 21
-508
 31
0.0
  0
LINE
  8
0
 10
257.804
 20
-508
 30
0.0
 11
0
 21
-370.8194
 31
0.0
  0
LINE
  8
0
 10
0
 20
-370.8194
 30
0.0
 11
-257.804
 21
-508
 31
0.0
  0
LINE
  8
0
 10
-257.804
 20
-508
 30
0.0
 11
0
 21
-645.1807
 31
0.0
  0
LINE
  8
0
 10
0
 20
-645.1807
 30
0.0
 11
257.804
 21
-508
 31
0.0
  0
LINE
  8
0
 10
257.804
 20
-508
 30
0.0
 11
257.804
 21
-741.5416
 31
0.0
  0
LINE
  8
0
 10
257.804
 20
-741.5416
 30
0.0
 11
0
 21
-878.7222
 31
0.0
  0
LINE
  8
0
 10
0
 20
-879.3313
 30
0.0
 11
0
 21
-645.1807
 31
0.0
  0
LINE
  8
0
 10
0
 20
-645.1807
 30
0.0
 11
0
 21
-879.3313
 31
0.0
  0
LINE
  8
0
 10
0
 20
-878.7222
 30
0.0
 11
-257.804
 21
-741.5416
 31
0.0
  0
CIRCLE
  8
0
 10
1000
 20
7000
 30
0.0
 40
100
  0
CIRCLE
  8
0
 10
2000
 20
7000
 30
0.0
 40
100
  0
CIRCLE
  8
0
 10
3000
 20
7000
 30
0.0
 40
100
  0
CIRCLE
  8
0
 10
100
 20
100
 30
0.0
 40
125
  0
CIRCLE
  8
0
 10
200
 20
200
 30
0.0
 40
200
  0
CIRCLE
  8
0
 10
300
 20
300
 30
0.0
 40
200
  0
CIRCLE
  8
0
 10
350
 20
350
 30
0.0
 40
200
  0
CIRCLE
  8
0
 10
360
 20
360
 30
0.0
 40
200
  0
CIRCLE
  8
0
 10
370
 20
370
 30
0.0
 40
200
  0
ENDSEC
  0
EOF
