  0
SECTION
  2
ENTITIES
  0
LINE
  8
0
 10
-4.418023E-03
 20
1524.004
 30
0.0
 11
-4.898069E-04
 21
812.8033
 31
0.0
  0
ARC
  8
0
 10
238.5573
 20
808.8011
 30
0.0
 40
238.5914
 50
124.8475
 51
179.0391
  0
LINE
  8
0
 10
102.2275
 20
1004.607
 30
0.0
 11
239.4401
 21
1130.728
 31
0.0
  0
ARC
  8
0
 10
77.00471
 20
1275.88
 30
0.0
 40
217.8405
 50
318.216
 51
351.0432
  0
LINE
  8
0
 10
292.1841
 20
1241.962
 30
0.0
 11
275.7986
 21
1744.422
 31
0.0
  0
LINE
  8
0
 10
275.7986
 20
1744.422
 30
0.0
 11
378.5229
 21
1822.206
 31
0.0
  0
LINE
  8
0
 10
378.5228
 20
1822.206
 30
0.0
 11
481.2479
 21
1744.422
 31
0.0
  0
LINE
  8
0
 10
481.2479
 20
1744.422
 30
0.0
 11
464.8676
 21
1241.964
 31
0.0
  0
ARC
  8
0
 10
680.0527
 20
1275.873
 30
0.0
 40
217.8405
 50
188.9554
 51
221.7827
  0
LINE
  8
0
 10
517.6135
 20
1130.725
 30
0.0
 11
654.8229
 21
1004.6
 31
0.0
  0
ARC
  8
0
 10
518.4881
 20
808.7977
 30
0.0
 40
238.5914
 50
.9594811
 51
55.15108
  0
ARC
  8
0
 10
526.3552
 20
678.4437
 30
0.0
 40
266.9608
 50
30.21558
 51
52.8685
  0
LINE
  8
0
 10
687.5052
 20
891.2787
 30
0.0
 11
481.2517
 21
1033.222
 31
0.0
  0
LINE
  8
0
 10
481.2517
 20
1033.222
 30
0.0
 11
378.5264
 21
1111.005
 31
0.0
  0
LINE
  8
0
 10
378.5264
 20
1111.005
 30
0.0
 11
275.8021
 21
1033.221
 31
0.0
  0
LINE
  8
0
 10
275.8021
 20
1033.221
 30
0.0
 11
69.55007
 21
891.2752
 31
0.0
  0
ARC
  8
0
 10
230.6867
 20
678.4476
 30
0.0
 40
266.9608
 50
127.1301
 51
149.7831
  0
LINE
  8
0
 10
-8.403259E-04
 20
812.8027
 30
0.0
 11
3.08789E-03
 21
101.602
 31
0.0
  0
ARC
  8
0
 10
238.5609
 20
97.60007
 30
0.0
 40
238.5914
 50
124.8475
 51
179.0391
  0
LINE
  8
0
 10
102.2311
 20
293.4063
 30
0.0
 11
239.4437
 21
419.5269
 31
0.0
  0
ARC
  8
0
 10
77.00831
 20
564.6793
 30
0.0
 40
217.8405
 50
318.216
 51
351.0432
  0
LINE
  8
0
 10
292.1878
 20
530.761
 30
0.0
 11
275.8021
 21
1033.221
 31
0.0
  0
LINE
  8
0
 10
275.8021
 20
1033.221
 30
0.0
 11
378.5264
 21
1111.005
 31
0.0
  0
LINE
  8
0
 10
378.5264
 20
1111.005
 30
0.0
 11
481.2517
 21
1033.222
 31
0.0
  0
LINE
  8
0
 10
481.2517
 20
1033.222
 30
0.0
 11
464.8712
 21
530.7619
 31
0.0
  0
ARC
  8
0
 10
680.0564
 20
564.6715
 30
0.0
 40
217.8405
 50
188.9554
 51
221.7827
  0
LINE
  8
0
 10
517.6171
 20
419.5233
 30
0.0
 11
654.8264
 21
293.3993
 31
0.0
  0
ARC
  8
0
 10
518.4918
 20
97.59651
 30
0.0
 40
238.5914
 50
.9594811
 51
55.15108
  0
ARC
  8
0
 10
526.3588
 20
-32.75486
 30
0.0
 40
266.9608
 50
30.21558
 51
52.8685
  0
LINE
  8
0
 10
687.5089
 20
180.08
 30
0.0
 11
378.5302
 21
399.8061
 31
0.0
  0
LINE
  8
0
 10
378.5302
 20
399.8061
 30
0.0
 11
69.5458
 21
180.0879
 31
0.0
  0
ARC
  8
0
 10
230.6905
 20
-32.75109
 30
0.0
 40
266.9608
 50
127.1301
 51
149.7831
  0
CIRCLE
  8
0
 10
1000
 20
7000
 30
0.0
 40
100
  0
CIRCLE
  8
0
 10
2500
 20
7000
 30
0.0
 40
100
  0
CIRCLE
  8
0
 10
4000
 20
7000
 30
0.0
 40
100
  0
CIRCLE
  8
0
 10
100
 20
100
 30
0.0
 40
125
  0
CIRCLE
  8
0
 10
200
 20
200
 30
0.0
 40
200
  0
CIRCLE
  8
0
 10
300
 20
300
 30
0.0
 40
200
  0
CIRCLE
  8
0
 10
350
 20
350
 30
0.0
 40
200
  0
CIRCLE
  8
0
 10
360
 20
360
 30
0.0
 40
200
  0
CIRCLE
  8
0
 10
370
 20
370
 30
0.0
 40
200
  0
ENDSEC
  0
EOF
