  0
SECTION
  2
ENTITIES
  0
LINE
  8
0
 10
0
 20
762
 30
0.0
 11
0
 21
228.349
 31
0.0
  0
LINE
  8
0
 10
0
 20
228.349
 30
0.0
 11
108.9686
 21
228.349
 31
0.0
  0
LINE
  8
0
 10
108.9686
 20
228.349
 30
0.0
 11
108.9686
 21
762
 31
0.0
  0
LINE
  8
0
 10
108.9686
 20
762
 30
0.0
 11
217.9375
 21
762
 31
0.0
  0
LINE
  8
0
 10
217.9375
 20
762
 30
0.0
 11
217.9375
 21
228.349
 31
0.0
  0
LINE
  8
0
 10
217.9375
 20
228.349
 30
0.0
 11
751.5886
 21
228.349
 31
0.0
  0
LINE
  8
0
 10
751.5886
 20
228.349
 30
0.0
 11
751.5886
 21
119.3801
 31
0.0
  0
LINE
  8
0
 10
751.5886
 20
119.3801
 30
0.0
 11
217.9375
 21
119.38
 31
0.0
  0
LINE
  8
0
 10
217.9375
 20
119.3801
 30
0.0
 11
108.9686
 21
119.3801
 31
0.0
  0
LINE
  8
0
 10
108.9686
 20
119.3801
 30
0.0
 11
0
 21
119.3801
 31
0.0
  0
LINE
  8
0
 10
0
 20
119.3801
 30
0.0
 11
0
 21
-414.2709
 31
0.0
  0
LINE
  8
0
 10
0
 20
-414.2709
 30
0.0
 11
108.9686
 21
-414.2709
 31
0.0
  0
LINE
  8
0
 10
108.9686
 20
-414.2709
 30
0.0
 11
108.9686
 21
119.3801
 31
0.0
  0
LINE
  8
0
 10
108.9686
 20
119.3801
 30
0.0
 11
108.9686
 21
228.349
 31
0.0
  0
LINE
  8
0
 10
108.9686
 20
228.349
 30
0.0
 11
217.9375
 21
228.349
 31
0.0
  0
LINE
  8
0
 10
217.9375
 20
228.349
 30
0.0
 11
217.9375
 21
119.3801
 31
0.0
  0
LINE
  8
0
 10
217.9375
 20
119.3801
 30
0.0
 11
217.9375
 21
-414.2709
 31
0.0
  0
LINE
  8
0
 10
217.9375
 20
-414.2709
 30
0.0
 11
751.5886
 21
-414.2709
 31
0.0
  0
LINE
  8
0
 10
751.5886
 20
-414.2709
 30
0.0
 11
751.5886
 21
-523.24
 31
0.0
  0
LINE
  8
0
 10
751.5886
 20
-523.24
 30
0.0
 11
217.9375
 21
-523.24
 31
0.0
  0
LINE
  8
0
 10
217.9375
 20
-523.24
 30
0.0
 11
217.9375
 21
-414.2709
 31
0.0
  0
LINE
  8
0
 10
217.9375
 20
-414.2709
 30
0.0
 11
108.9686
 21
-414.2709
 31
0.0
  0
LINE
  8
0
 10
108.9686
 20
-414.2709
 30
0.0
 11
108.9686
 21
-523.24
 31
0.0
  0
LINE
  8
0
 10
108.9686
 20
-523.24
 30
0.0
 11
0
 21
-523.24
 31
0.0
  0
CIRCLE
  8
0
 10
1000
 20
7000
 30
0.0
 40
100
  0
CIRCLE
  8
0
 10
2500
 20
7000
 30
0.0
 40
100
  0
CIRCLE
  8
0
 10
100
 20
100
 30
0.0
 40
125
  0
CIRCLE
  8
0
 10
200
 20
200
 30
0.0
 40
200
  0
CIRCLE
  8
0
 10
300
 20
300
 30
0.0
 40
200
  0
CIRCLE
  8
0
 10
350
 20
350
 30
0.0
 40
200
  0
CIRCLE
  8
0
 10
360
 20
360
 30
0.0
 40
200
  0
CIRCLE
  8
0
 10
370
 20
370
 30
0.0
 40
200
  0
ENDSEC
  0
EOF
