  0
SECTION
  2
ENTITIES
  0
LINE
  8
0
 10
-508
 20
254
 30
0.0
 11
-508
 21
-27.2
 31
0.0
  0
LINE
  8
0
 10
-508
 20
-27.2
 30
0.0
 11
-226.8
 21
254
 31
0.0
  0
LINE
  8
0
 10
-226.8
 20
254
 30
0.0
 11
-127
 21
154.2
 31
0.0
  0
LINE
  8
0
 10
-127
 20
154.2
 30
0.0
 11
-27.20002
 21
254
 31
0.0
  0
LINE
  8
0
 10
-27.20002
 20
254
 30
0.0
 11
254
 21
-27.2
 31
0.0
  0
LINE
  8
0
 10
254
 20
-27.2
 30
0.0
 11
154.2
 21
-127
 31
0.0
  0
LINE
  8
0
 10
154.2
 20
-127
 30
0.0
 11
-127
 21
154.2
 31
0.0
  0
LINE
  8
0
 10
-127
 20
154.2
 30
0.0
 11
-408.2
 21
-127
 31
0.0
  0
LINE
  8
0
 10
-408.2
 20
-127
 30
0.0
 11
-508
 21
-27.20001
 31
0.0
  0
LINE
  8
0
 10
-508
 20
-27.20001
 30
0.0
 11
-508
 21
-226.8
 31
0.0
  0
LINE
  8
0
 10
-508
 20
-226.8
 30
0.0
 11
-408.2
 21
-127
 31
0.0
  0
LINE
  8
0
 10
-408.2
 20
-127
 30
0.0
 11
-127
 21
-408.2
 31
0.0
  0
LINE
  8
0
 10
-127
 20
-408.2
 30
0.0
 11
154.2
 21
-127
 31
0.0
  0
LINE
  8
0
 10
154.2
 20
-127
 30
0.0
 11
254
 21
-226.8
 31
0.0
  0
LINE
  8
0
 10
254
 20
-226.8
 30
0.0
 11
-27.20002
 21
-508
 31
0.0
  0
LINE
  8
0
 10
-27.20002
 20
-508
 30
0.0
 11
-127
 21
-408.2
 31
0.0
  0
LINE
  8
0
 10
-127
 20
-408.2
 30
0.0
 11
-226.8
 21
-508
 31
0.0
  0
LINE
  8
0
 10
-226.8
 20
-508
 30
0.0
 11
-508
 21
-226.8
 31
0.0
  0
LINE
  8
0
 10
-508
 20
-226.8
 30
0.0
 11
-508
 21
-508
 31
0.0
  0
LINE
  8
0
 10
-508
 20
-508
 30
0.0
 11
-226.8
 21
-508
 31
0.0
  0
LINE
  8
0
 10
-226.8
 20
-508
 30
0.0
 11
-27.20002
 21
-508
 31
0.0
  0
LINE
  8
0
 10
-27.20002
 20
-508
 30
0.0
 11
254
 21
-508
 31
0.0
  0
LINE
  8
0
 10
254
 20
-508
 30
0.0
 11
254
 21
-789.2
 31
0.0
  0
LINE
  8
0
 10
254
 20
-789.2
 30
0.0
 11
-27.20002
 21
-508
 31
0.0
  0
LINE
  8
0
 10
-27.20002
 20
-508
 30
0.0
 11
-127
 21
-607.8
 31
0.0
  0
LINE
  8
0
 10
-127
 20
-607.8
 30
0.0
 11
-226.8
 21
-508
 31
0.0
  0
LINE
  8
0
 10
-226.8
 20
-508
 30
0.0
 11
-508
 21
-789.2
 31
0.0
  0
LINE
  8
0
 10
-508
 20
-789.2
 30
0.0
 11
-408.2
 21
-889
 31
0.0
  0
LINE
  8
0
 10
-408.2
 20
-889
 30
0.0
 11
-127
 21
-607.8
 31
0.0
  0
LINE
  8
0
 10
-127
 20
-607.8
 30
0.0
 11
154.2
 21
-889
 31
0.0
  0
LINE
  8
0
 10
154.2
 20
-889
 30
0.0
 11
254
 21
-988.8
 31
0.0
  0
LINE
  8
0
 10
254
 20
-988.8
 30
0.0
 11
254
 21
-789.2
 31
0.0
  0
LINE
  8
0
 10
254
 20
-789.2
 30
0.0
 11
154.2
 21
-889
 31
0.0
  0
LINE
  8
0
 10
154.2
 20
-889
 30
0.0
 11
-127
 21
-1170.2
 31
0.0
  0
LINE
  8
0
 10
-127
 20
-1170.2
 30
0.0
 11
-408.2
 21
-889
 31
0.0
  0
LINE
  8
0
 10
-408.2
 20
-889
 30
0.0
 11
-508
 21
-988.8
 31
0.0
  0
LINE
  8
0
 10
-508
 20
-988.8
 30
0.0
 11
-226.8
 21
-1270
 31
0.0
  0
LINE
  8
0
 10
-226.8
 20
-1270
 30
0.0
 11
-127
 21
-1170.2
 31
0.0
  0
LINE
  8
0
 10
-127
 20
-1170.2
 30
0.0
 11
-27.20002
 21
-1270
 31
0.0
  0
LINE
  8
0
 10
-27.20002
 20
-1270
 30
0.0
 11
254
 21
-988.8
 31
0.0
  0
LINE
  8
0
 10
254
 20
-988.8
 30
0.0
 11
254
 21
-1270
 31
0.0
  0
LINE
  8
0
 10
254
 20
-1270
 30
0.0
 11
-27.20002
 21
-1270
 31
0.0
  0
LINE
  8
0
 10
-27.20002
 20
-1270
 30
0.0
 11
-226.8
 21
-1270
 31
0.0
  0
LINE
  8
0
 10
-226.8
 20
-1270
 30
0.0
 11
-508
 21
-1270
 31
0.0
  0
CIRCLE
  8
0
 10
1000
 20
7000
 30
0.0
 40
100
  0
CIRCLE
  8
0
 10
2500
 20
7000
 30
0.0
 40
100
  0
CIRCLE
  8
0
 10
4000
 20
7000
 30
0.0
 40
100
  0
CIRCLE
  8
0
 10
100
 20
100
 30
0.0
 40
125
  0
CIRCLE
  8
0
 10
200
 20
200
 30
0.0
 40
200
  0
CIRCLE
  8
0
 10
300
 20
300
 30
0.0
 40
200
  0
CIRCLE
  8
0
 10
350
 20
350
 30
0.0
 40
200
  0
CIRCLE
  8
0
 10
360
 20
360
 30
0.0
 40
200
  0
CIRCLE
  8
0
 10
370
 20
370
 30
0.0
 40
200
  0
ENDSEC
  0
EOF
