  0
SECTION
  2
ENTITIES
  0
ARC
  8
0
 10
-982.7842
 20
547.3237
 30
0.0
 40
1237.412
 50
333.7484
 51
358.179
  0
ARC
  8
0
 10
1236.78
 20
-547.335
 30
0.0
 40
1237.412
 50
153.7481
 51
178.1787
  0
ARC
  8
0
 10
1236.78
 20
-468.6732
 30
0.0
 40
1237.412
 50
181.8214
 51
206.252
  0
ARC
  8
0
 10
-982.7842
 20
-1563.332
 30
0.0
 40
1237.412
 50
1.821304
 51
26.2519
  0
CIRCLE
  8
0
 10
1000
 20
7000
 30
0.0
 40
100
  0
CIRCLE
  8
0
 10
1500
 20
8000
 30
0.0
 40
100
  0
CIRCLE
  8
0
 10
2000
 20
7000
 30
0.0
 40
100
  0
CIRCLE
  8
0
 10
100
 20
100
 30
0.0
 40
125
  0
CIRCLE
  8
0
 10
200
 20
200
 30
0.0
 40
200
  0
CIRCLE
  8
0
 10
300
 20
300
 30
0.0
 40
200
  0
CIRCLE
  8
0
 10
350
 20
350
 30
0.0
 40
200
  0
CIRCLE
  8
0
 10
360
 20
360
 30
0.0
 40
200
  0
CIRCLE
  8
0
 10
370
 20
370
 30
0.0
 40
200
  0
ENDSEC
  0
EOF
