  0
SECTION
  2
ENTITIES
  0
LINE
  8
0
 10
-508
 20
254
 30
0.0
 11
-508
 21
-120.9333
 31
0.0
  0
LINE
  8
0
 10
-508
 20
-120.9333
 30
0.0
 11
-133.0667
 21
254
 31
0.0
  0
LINE
  8
0
 10
-133.0667
 20
254
 30
0.0
 11
-7.629395E-06
 21
120.9333
 31
0.0
  0
LINE
  8
0
 10
-7.629395E-06
 20
120.9333
 30
0.0
 11
133.0666
 21
254
 31
0.0
  0
LINE
  8
0
 10
133.0666
 20
254
 30
0.0
 11
508
 21
-120.9333
 31
0.0
  0
LINE
  8
0
 10
508
 20
-120.9333
 30
0.0
 11
374.9333
 21
-254
 31
0.0
  0
LINE
  8
0
 10
374.9333
 20
-254
 30
0.0
 11
-7.629395E-06
 21
120.9333
 31
0.0
  0
LINE
  8
0
 10
-7.629395E-06
 20
120.9333
 30
0.0
 11
-374.9333
 21
-254
 31
0.0
  0
LINE
  8
0
 10
-374.9333
 20
-254
 30
0.0
 11
-508
 21
-120.9333
 31
0.0
  0
LINE
  8
0
 10
-508
 20
-120.9333
 30
0.0
 11
-508
 21
-387.0667
 31
0.0
  0
LINE
  8
0
 10
-508
 20
-387.0667
 30
0.0
 11
-374.9333
 21
-254
 31
0.0
  0
LINE
  8
0
 10
-374.9333
 20
-254
 30
0.0
 11
-7.629395E-06
 21
-628.9333
 31
0.0
  0
LINE
  8
0
 10
-7.629395E-06
 20
-628.9333
 30
0.0
 11
374.9333
 21
-254
 31
0.0
  0
LINE
  8
0
 10
374.9333
 20
-254
 30
0.0
 11
508
 21
-387.0667
 31
0.0
  0
LINE
  8
0
 10
508
 20
-387.0667
 30
0.0
 11
133.0666
 21
-762
 31
0.0
  0
LINE
  8
0
 10
133.0666
 20
-762
 30
0.0
 11
-7.629395E-06
 21
-628.9333
 31
0.0
  0
LINE
  8
0
 10
-7.629395E-06
 20
-628.9333
 30
0.0
 11
-133.0667
 21
-762
 31
0.0
  0
LINE
  8
0
 10
-133.0667
 20
-762
 30
0.0
 11
-508
 21
-387.0667
 31
0.0
  0
LINE
  8
0
 10
-508
 20
-387.0667
 30
0.0
 11
-508
 21
-762
 31
0.0
  0
LINE
  8
0
 10
-508
 20
-762
 30
0.0
 11
-133.0667
 21
-762
 31
0.0
  0
LINE
  8
0
 10
-133.0667
 20
-762
 30
0.0
 11
133.0666
 21
-762
 31
0.0
  0
LINE
  8
0
 10
133.0666
 20
-762
 30
0.0
 11
508
 21
-762
 31
0.0
  0
LINE
  8
0
 10
508
 20
-762
 30
0.0
 11
508
 21
-1136.933
 31
0.0
  0
LINE
  8
0
 10
508
 20
-1136.933
 30
0.0
 11
133.0666
 21
-762
 31
0.0
  0
LINE
  8
0
 10
133.0666
 20
-762
 30
0.0
 11
-7.629395E-06
 21
-895.0667
 31
0.0
  0
LINE
  8
0
 10
-7.629395E-06
 20
-895.0667
 30
0.0
 11
-133.0667
 21
-762
 31
0.0
  0
LINE
  8
0
 10
-133.0667
 20
-762
 30
0.0
 11
-508
 21
-1136.933
 31
0.0
  0
LINE
  8
0
 10
-508
 20
-1136.933
 30
0.0
 11
-374.9333
 21
-1270
 31
0.0
  0
LINE
  8
0
 10
-374.9333
 20
-1270
 30
0.0
 11
-7.629395E-06
 21
-895.0667
 31
0.0
  0
LINE
  8
0
 10
-7.629395E-06
 20
-895.0667
 30
0.0
 11
374.9333
 21
-1270
 31
0.0
  0
LINE
  8
0
 10
374.9333
 20
-1270
 30
0.0
 11
508
 21
-1403.067
 31
0.0
  0
LINE
  8
0
 10
508
 20
-1403.067
 30
0.0
 11
508
 21
-1136.933
 31
0.0
  0
LINE
  8
0
 10
508
 20
-1136.933
 30
0.0
 11
374.9333
 21
-1270
 31
0.0
  0
LINE
  8
0
 10
374.9333
 20
-1270
 30
0.0
 11
-7.629395E-06
 21
-1644.933
 31
0.0
  0
LINE
  8
0
 10
-7.629395E-06
 20
-1644.933
 30
0.0
 11
-374.9333
 21
-1270
 31
0.0
  0
LINE
  8
0
 10
-374.9333
 20
-1270
 30
0.0
 11
-508
 21
-1403.067
 31
0.0
  0
LINE
  8
0
 10
-508
 20
-1403.067
 30
0.0
 11
-133.0667
 21
-1778
 31
0.0
  0
LINE
  8
0
 10
-133.0667
 20
-1778
 30
0.0
 11
-7.629395E-06
 21
-1644.933
 31
0.0
  0
LINE
  8
0
 10
-7.629395E-06
 20
-1644.933
 30
0.0
 11
133.0666
 21
-1778
 31
0.0
  0
LINE
  8
0
 10
133.0666
 20
-1778
 30
0.0
 11
508
 21
-1403.067
 31
0.0
  0
LINE
  8
0
 10
508
 20
-1403.067
 30
0.0
 11
508
 21
-1778
 31
0.0
  0
LINE
  8
0
 10
508
 20
-1778
 30
0.0
 11
133.0666
 21
-1778
 31
0.0
  0
LINE
  8
0
 10
133.0666
 20
-1778
 30
0.0
 11
-133.0667
 21
-1778
 31
0.0
  0
LINE
  8
0
 10
-133.0667
 20
-1778
 30
0.0
 11
-508
 21
-1778
 31
0.0
  0
CIRCLE
  8
0
 10
1000
 20
7000
 30
0.0
 40
100
  0
CIRCLE
  8
0
 10
3000
 20
7000
 30
0.0
 40
100
  0
CIRCLE
  8
0
 10
5000
 20
7000
 30
0.0
 40
100
  0
CIRCLE
  8
0
 10
100
 20
100
 30
0.0
 40
125
  0
CIRCLE
  8
0
 10
200
 20
200
 30
0.0
 40
200
  0
CIRCLE
  8
0
 10
300
 20
300
 30
0.0
 40
200
  0
CIRCLE
  8
0
 10
350
 20
350
 30
0.0
 40
200
  0
CIRCLE
  8
0
 10
360
 20
360
 30
0.0
 40
200
  0
CIRCLE
  8
0
 10
370
 20
370
 30
0.0
 40
200
  0
ENDSEC
  0
EOF
