  0
SECTION
  2
ENTITIES
  0
ARC
  8
0
 10
-40.78802
 20
231.2256
 30
0.0
 40
307.2169
 50
310.2288
 51
355.9539
  0
LINE
  8
0
 10
157.6244
 20
-3.326604
 30
0.0
 11
111.56
 21
50.06092
 31
0.0
  0
LINE
  8
0
 10
111.56
 20
50.06092
 30
0.0
 11
161.2102
 21
-1.131566E-03
 31
0.0
  0
LINE
  8
0
 10
161.2102
 20
-1.136759E-03
 30
0.0
 11
210.0674
 21
-50.8374
 31
0.0
  0
LINE
  8
0
 10
210.0674
 20
-50.8374
 30
0.0
 11
165.2192
 21
5.501236
 31
0.0
  0
ARC
  8
0
 10
367.9265
 20
-231.6106
 30
0.0
 40
311.9491
 50
130.5273
 51
175.9454
  0
ARC
  8
0
 10
367.9265
 20
-187.4949
 30
0.0
 40
311.9491
 50
184.0547
 51
229.4729
  0
LINE
  8
0
 10
165.2192
 20
-424.6067
 30
0.0
 11
210.0674
 21
-368.2681
 31
0.0
  0
LINE
  8
0
 10
210.0674
 20
-368.2681
 30
0.0
 11
161.2102
 21
-419.1043
 31
0.0
  0
LINE
  8
0
 10
161.2102
 20
-419.1043
 30
0.0
 11
111.56
 21
-469.1664
 31
0.0
  0
LINE
  8
0
 10
111.56
 20
-469.1664
 30
0.0
 11
157.6244
 21
-415.7789
 31
0.0
  0
ARC
  8
0
 10
-40.78802
 20
-650.3311
 30
0.0
 40
307.2169
 50
4.046363
 51
49.77148
  0
CIRCLE
  8
0
 10
1000
 20
6000
 30
0.0
 40
100
  0
CIRCLE
  8
0
 10
1500
 20
8000
 30
0.0
 40
100
  0
CIRCLE
  8
0
 10
2000
 20
6000
 30
0.0
 40
100
  0
CIRCLE
  8
0
 10
100
 20
100
 30
0.0
 40
125
  0
CIRCLE
  8
0
 10
200
 20
200
 30
0.0
 40
200
  0
CIRCLE
  8
0
 10
300
 20
300
 30
0.0
 40
200
  0
CIRCLE
  8
0
 10
350
 20
350
 30
0.0
 40
200
  0
CIRCLE
  8
0
 10
360
 20
360
 30
0.0
 40
200
  0
CIRCLE
  8
0
 10
370
 20
370
 30
0.0
 40
200
  0
ENDSEC
  0
EOF
