  0
SECTION
  2
ENTITIES
  0
LINE
  8
0
 10
5381.964
 20
1977.555
 30
0.0
 11
5055.363
 21
1650.953
 31
0.0
  0
LINE
  8
0
 10
5055.362
 20
1650.952
 30
0.0
 11
5029.247
 21
1624.838
 31
0.0
  0
ARC
  8
0
 10
5000.919
 20
1596.447
 30
0.0
 40
40.10214
 50
45.06429
 51
104.9025
  0
ARC
  8
0
 10
4998.133
 20
1599.362
 30
0.0
 40
36.61997
 50
101.861
 51
168.1023
  0
ARC
  8
0
 10
4995.087
 20
1594.98
 30
0.0
 40
34.86813
 50
159.9973
 51
230.0047
  0
ARC
  8
0
 10
4999.63
 20
1591.588
 30
0.0
 40
35.64235
 50
220.8666
 51
289.1385
  0
ARC
  8
0
 10
5004.349
 20
1593.154
 30
0.0
 40
35.93044
 50
281.1836
 51
348.8393
  0
ARC
  8
0
 10
5000.66
 20
1596.468
 30
0.0
 40
40.27154
 50
345.2274
 51
44.78183
  0
LINE
  8
0
 10
5029.247
 20
1624.838
 30
0.0
 11
5055.362
 21
1650.952
 31
0.0
  0
ARC
  8
0
 10
5022.508
 20
1672.111
 30
0.0
 40
39.07762
 50
327.2174
 51
76.8412
  0
ARC
  8
0
 10
5020.083
 20
1672.761
 30
0.0
 40
39.07762
 50
73.1588
 51
182.7826
  0
LINE
  8
0
 10
4981.051
 20
1670.864
 30
0.0
 11
4990.609
 21
1635.19
 31
0.0
  0
LINE
  8
0
 10
4990.609
 20
1635.19
 30
0.0
 11
4981.051
 21
1670.864
 31
0.0
  0
ARC
  8
0
 10
4946.3
 20
1652.992
 30
0.0
 40
39.07762
 50
27.21744
 51
136.8412
  0
ARC
  8
0
 10
4944.525
 20
1651.214
 30
0.0
 40
39.07762
 50
133.1588
 51
242.7826
  0
LINE
  8
0
 10
4926.651
 20
1616.464
 30
0.0
 11
4962.325
 21
1606.906
 31
0.0
  0
LINE
  8
0
 10
4962.325
 20
1606.906
 30
0.0
 11
4926.651
 21
1616.464
 31
0.0
  0
ARC
  8
0
 10
4924.754
 20
1577.434
 30
0.0
 40
39.07762
 50
87.21742
 51
196.8412
  0
ARC
  8
0
 10
4925.403
 20
1575.006
 30
0.0
 40
39.07762
 50
193.1588
 51
302.7826
  0
ARC
  8
0
 10
4979.417
 20
1520.995
 30
0.0
 40
39.07762
 50
147.2174
 51
256.8412
  0
ARC
  8
0
 10
4981.841
 20
1520.345
 30
0.0
 40
39.07762
 50
253.1588
 51
2.782556
  0
ARC
  8
0
 10
5055.625
 20
1540.115
 30
0.0
 40
39.07762
 50
207.2175
 51
316.8412
  0
ARC
  8
0
 10
5055.625
 20
1540.115
 30
0.0
 40
39.07762
 50
207.2175
 51
316.8412
  0
LINE
  8
0
 10
5020.875
 20
1522.242
 30
0.0
 11
5010.847
 21
1559.861
 31
0.0
  0
ARC
  8
0
 10
4999.032
 20
1589.859
 30
0.0
 40
32.24108
 50
219.0039
 51
291.498
  0
LINE
  8
0
 10
4973.975
 20
1569.565
 30
0.0
 11
4946.563
 21
1542.154
 31
0.0
  0
LINE
  8
0
 10
4946.563
 20
1542.154
 30
0.0
 11
4619.962
 21
1215.552
 31
0.0
  0
LINE
  8
0
 10
4619.962
 20
1215.552
 30
0.0
 11
4917.794
 21
917.722
 31
0.0
  0
ARC
  8
0
 10
4946.299
 20
890.9916
 30
0.0
 40
39.07762
 50
27.21744
 51
136.8412
  0
ARC
  8
0
 10
5020.083
 20
910.7624
 30
0.0
 40
39.07762
 50
73.1588
 51
182.7826
  0
ARC
  8
0
 10
5022.508
 20
910.1128
 30
0.0
 40
39.07762
 50
327.2174
 51
76.8412
  0
ARC
  8
0
 10
5076.52
 20
856.0992
 30
0.0
 40
39.07762
 50
13.15878
 51
122.7825
  0
ARC
  8
0
 10
5077.169
 20
853.6738
 30
0.0
 40
39.07762
 50
267.2175
 51
16.84122
  0
LINE
  8
0
 10
5075.272
 20
814.6437
 30
0.0
 11
5039.598
 21
824.2017
 31
0.0
  0
LINE
  8
0
 10
5039.598
 20
824.2017
 30
0.0
 11
5075.272
 21
814.6437
 31
0.0
  0
ARC
  8
0
 10
5057.399
 20
779.8929
 30
0.0
 40
39.07762
 50
313.1588
 51
62.78252
  0
LINE
  8
0
 10
5084.129
 20
751.3867
 30
0.0
 11
5381.962
 21
453.5551
 31
0.0
  0
CIRCLE
  8
0
 10
1000
 20
7000
 30
0.0
 40
100
  0
CIRCLE
  8
0
 10
1000
 20
8000
 30
0.0
 40
100
  0
CIRCLE
  8
0
 10
2500
 20
7000
 30
0.0
 40
100
  0
CIRCLE
  8
0
 10
2500
 20
8000
 30
0.0
 40
100
  0
CIRCLE
  8
0
 10
100
 20
100
 30
0.0
 40
125
  0
CIRCLE
  8
0
 10
200
 20
200
 30
0.0
 40
201
  0
CIRCLE
  8
0
 10
300
 20
300
 30
0.0
 40
200
  0
CIRCLE
  8
0
 10
350
 20
350
 30
0.0
 40
200
  0
CIRCLE
  8
0
 10
360
 20
360
 30
0.0
 40
200
  0
CIRCLE
  8
0
 10
370
 20
370
 30
0.0
 40
200
  0
ENDSEC
  0
EOF
