  0
SECTION
  2
ENTITIES
  0
ARC
  8
0
 10
-424.3257
 20
344.9715
 30
0.0
 40
425.8526
 50
305.8961
 51
4.853487
  0
ARC
  8
0
 10
75.02484
 20
-344.9659
 30
0.0
 40
425.8526
 50
125.8959
 51
184.8538
  0
ARC
  8
0
 10
75.02484
 20
-417.0278
 30
0.0
 40
425.8526
 50
175.1463
 51
234.1042
  0
ARC
  8
0
 10
-424.3258
 20
-1106.965
 30
0.0
 40
425.8526
 50
355.1465
 51
54.1042
  0
CIRCLE
  8
0
 10
1000
 20
7000
 30
0.0
 40
100
  0
CIRCLE
  8
0
 10
2000
 20
8000
 30
0.0
 40
100
  0
CIRCLE
  8
0
 10
3000
 20
7000
 30
0.0
 40
100
  0
CIRCLE
  8
0
 10
100
 20
100
 30
0.0
 40
125
  0
CIRCLE
  8
0
 10
200
 20
200
 30
0.0
 40
200
  0
CIRCLE
  8
0
 10
300
 20
300
 30
0.0
 40
200
  0
CIRCLE
  8
0
 10
350
 20
350
 30
0.0
 40
200
  0
CIRCLE
  8
0
 10
360
 20
360
 30
0.0
 40
200
  0
CIRCLE
  8
0
 10
370
 20
370
 30
0.0
 40
200
  0
ENDSEC
  0
EOF
