  0
SECTION
  2
ENTITIES
  0
ARC
  8
0
 10
4819.708
 20
2403.863
 30
0.0
 40
72.18922
 50
180
 51
270
  0
LINE
  8
0
 10
4819.708
 20
2331.674
 30
0.0
 11
5040.057
 21
1961.261
 31
0.0
  0
ARC
  8
0
 10
4606.553
 20
1641.853
 30
0.0
 40
538.4666
 50
323.6199
 51
36.38297
  0
LINE
  8
0
 10
5040.071
 20
1322.466
 30
0.0
 11
4819.723
 21
952.0526
 31
0.0
  0
ARC
  8
0
 10
4819.723
 20
879.8633
 30
0.0
 40
72.18922
 50
89.99999
 51
180.0002
  0
CIRCLE
  8
0
 10
1000
 20
7000
 30
0.0
 40
100
  0
CIRCLE
  8
0
 10
1500
 20
7000
 30
0.0
 40
100
  0
CIRCLE
  8
0
 10
100
 20
100
 30
0.0
 40
125
  0
CIRCLE
  8
0
 10
200
 20
200
 30
0.0
 40
200
  0
CIRCLE
  8
0
 10
300
 20
300
 30
0.0
 40
200
  0
CIRCLE
  8
0
 10
350
 20
350
 30
0.0
 40
200
  0
CIRCLE
  8
0
 10
360
 20
360
 30
0.0
 40
200
  0
CIRCLE
  8
0
 10
370
 20
370
 30
0.0
 40
200
  0
ENDSEC
  0
EOF
